ISO-10303-21;
HEADER;
/* Generated by software containing ST-Developer
 * from STEP Tools, Inc. (www.steptools.com) 
 */

FILE_DESCRIPTION(
/* description */ (''),
/* implementation_level */ '2;1');

FILE_NAME(
/* name */ '14PRF-4.stp',
/* time_stamp */ '2025-07-09T13:22:02-04:00',
/* author */ ('brad'),
/* organization */ (''),
/* preprocessor_version */ 'ST-DEVELOPER v20',
/* originating_system */ 'Autodesk Inventor 2025',
/* authorisation */ '');

FILE_SCHEMA (('AUTOMOTIVE_DESIGN { 1 0 10303 214 3 1 1 }'));
ENDSEC;

DATA;
#10=MECHANICAL_DESIGN_GEOMETRIC_PRESENTATION_REPRESENTATION('',(#13),#464);
#11=SHAPE_REPRESENTATION_RELATIONSHIP('SRR','None',#475,#12);
#12=ADVANCED_BREP_SHAPE_REPRESENTATION('',(#14),#463);
#13=STYLED_ITEM('',(#484),#14);
#14=MANIFOLD_SOLID_BREP('Solid2',#237);
#15=FACE_BOUND('',#52,.T.);
#16=FACE_BOUND('',#56,.T.);
#17=FACE_BOUND('',#61,.T.);
#18=FACE_BOUND('',#66,.T.);
#19=PLANE('',#268);
#20=PLANE('',#276);
#21=PLANE('',#288);
#22=PLANE('',#300);
#23=TOROIDAL_SURFACE('',#265,2.235,0.015);
#24=TOROIDAL_SURFACE('',#270,2.144,0.015);
#25=TOROIDAL_SURFACE('',#278,2.045,0.045);
#26=TOROIDAL_SURFACE('',#285,1.995,0.00499999999999971);
#27=TOROIDAL_SURFACE('',#290,1.922,0.00499999999999989);
#28=TOROIDAL_SURFACE('',#297,1.922,0.0049999999999998);
#29=CYLINDRICAL_SURFACE('',#262,2.25);
#30=CYLINDRICAL_SURFACE('',#274,2.129);
#31=CYLINDRICAL_SURFACE('',#282,2.);
#32=CYLINDRICAL_SURFACE('',#294,1.917);
#33=FACE_OUTER_BOUND('',#48,.T.);
#34=FACE_OUTER_BOUND('',#49,.T.);
#35=FACE_OUTER_BOUND('',#50,.T.);
#36=FACE_OUTER_BOUND('',#51,.T.);
#37=FACE_OUTER_BOUND('',#53,.T.);
#38=FACE_OUTER_BOUND('',#54,.T.);
#39=FACE_OUTER_BOUND('',#55,.T.);
#40=FACE_OUTER_BOUND('',#57,.T.);
#41=FACE_OUTER_BOUND('',#58,.T.);
#42=FACE_OUTER_BOUND('',#59,.T.);
#43=FACE_OUTER_BOUND('',#60,.T.);
#44=FACE_OUTER_BOUND('',#62,.T.);
#45=FACE_OUTER_BOUND('',#63,.T.);
#46=FACE_OUTER_BOUND('',#64,.T.);
#47=FACE_OUTER_BOUND('',#65,.T.);
#48=EDGE_LOOP('',(#157,#158,#159,#160));
#49=EDGE_LOOP('',(#161,#162,#163,#164,#165));
#50=EDGE_LOOP('',(#166,#167,#168,#169,#170));
#51=EDGE_LOOP('',(#171));
#52=EDGE_LOOP('',(#172));
#53=EDGE_LOOP('',(#173,#174,#175,#176,#177));
#54=EDGE_LOOP('',(#178,#179,#180,#181,#182));
#55=EDGE_LOOP('',(#183));
#56=EDGE_LOOP('',(#184));
#57=EDGE_LOOP('',(#185,#186,#187,#188,#189));
#58=EDGE_LOOP('',(#190,#191,#192,#193,#194,#195));
#59=EDGE_LOOP('',(#196,#197,#198,#199,#200));
#60=EDGE_LOOP('',(#201));
#61=EDGE_LOOP('',(#202));
#62=EDGE_LOOP('',(#203,#204,#205,#206,#207));
#63=EDGE_LOOP('',(#208,#209,#210,#211,#212,#213));
#64=EDGE_LOOP('',(#214,#215,#216,#217,#218));
#65=EDGE_LOOP('',(#219));
#66=EDGE_LOOP('',(#220));
#67=LINE('',#397,#72);
#68=LINE('',#403,#73);
#69=LINE('',#421,#74);
#70=LINE('',#435,#75);
#71=LINE('',#452,#76);
#72=VECTOR('',#307,2.125);
#73=VECTOR('',#314,2.25);
#74=VECTOR('',#339,2.129);
#75=VECTOR('',#356,2.);
#76=VECTOR('',#379,1.917);
#77=CIRCLE('',#260,2.25);
#78=CIRCLE('',#261,2.);
#79=CIRCLE('',#263,2.25);
#80=CIRCLE('',#264,2.25);
#81=CIRCLE('',#266,2.235);
#82=CIRCLE('',#267,0.015);
#83=CIRCLE('',#269,2.144);
#84=CIRCLE('',#271,0.015);
#85=CIRCLE('',#272,2.129);
#86=CIRCLE('',#273,2.129);
#87=CIRCLE('',#275,2.129);
#88=CIRCLE('',#277,2.045);
#89=CIRCLE('',#279,0.045);
#90=CIRCLE('',#280,2.);
#91=CIRCLE('',#281,2.);
#92=CIRCLE('',#283,2.);
#93=CIRCLE('',#284,2.);
#94=CIRCLE('',#286,1.995);
#95=CIRCLE('',#287,0.00499999999999971);
#96=CIRCLE('',#289,1.922);
#97=CIRCLE('',#291,1.917);
#98=CIRCLE('',#292,1.917);
#99=CIRCLE('',#293,0.00499999999999989);
#100=CIRCLE('',#295,1.917);
#101=CIRCLE('',#296,1.917);
#102=CIRCLE('',#298,1.922);
#103=CIRCLE('',#299,0.0049999999999998);
#104=VERTEX_POINT('',#394);
#105=VERTEX_POINT('',#396);
#106=VERTEX_POINT('',#400);
#107=VERTEX_POINT('',#401);
#108=VERTEX_POINT('',#406);
#109=VERTEX_POINT('',#410);
#110=VERTEX_POINT('',#413);
#111=VERTEX_POINT('',#415);
#112=VERTEX_POINT('',#419);
#113=VERTEX_POINT('',#423);
#114=VERTEX_POINT('',#426);
#115=VERTEX_POINT('',#428);
#116=VERTEX_POINT('',#432);
#117=VERTEX_POINT('',#433);
#118=VERTEX_POINT('',#438);
#119=VERTEX_POINT('',#442);
#120=VERTEX_POINT('',#445);
#121=VERTEX_POINT('',#446);
#122=VERTEX_POINT('',#451);
#123=VERTEX_POINT('',#453);
#124=VERTEX_POINT('',#457);
#125=EDGE_CURVE('',#104,#104,#77,.T.);
#126=EDGE_CURVE('',#104,#105,#67,.T.);
#127=EDGE_CURVE('',#105,#105,#78,.T.);
#128=EDGE_CURVE('',#106,#107,#79,.T.);
#129=EDGE_CURVE('',#106,#104,#68,.T.);
#130=EDGE_CURVE('',#107,#106,#80,.T.);
#131=EDGE_CURVE('',#108,#108,#81,.T.);
#132=EDGE_CURVE('',#108,#107,#82,.T.);
#133=EDGE_CURVE('',#109,#109,#83,.T.);
#134=EDGE_CURVE('',#109,#110,#84,.T.);
#135=EDGE_CURVE('',#111,#110,#85,.T.);
#136=EDGE_CURVE('',#110,#111,#86,.T.);
#137=EDGE_CURVE('',#112,#112,#87,.T.);
#138=EDGE_CURVE('',#112,#111,#69,.T.);
#139=EDGE_CURVE('',#113,#113,#88,.T.);
#140=EDGE_CURVE('',#113,#114,#89,.T.);
#141=EDGE_CURVE('',#115,#114,#90,.T.);
#142=EDGE_CURVE('',#114,#115,#91,.T.);
#143=EDGE_CURVE('',#116,#117,#92,.T.);
#144=EDGE_CURVE('',#116,#115,#70,.T.);
#145=EDGE_CURVE('',#117,#116,#93,.T.);
#146=EDGE_CURVE('',#118,#118,#94,.T.);
#147=EDGE_CURVE('',#118,#117,#95,.T.);
#148=EDGE_CURVE('',#119,#119,#96,.T.);
#149=EDGE_CURVE('',#120,#121,#97,.T.);
#150=EDGE_CURVE('',#121,#120,#98,.T.);
#151=EDGE_CURVE('',#121,#119,#99,.T.);
#152=EDGE_CURVE('',#120,#122,#71,.T.);
#153=EDGE_CURVE('',#123,#122,#100,.T.);
#154=EDGE_CURVE('',#122,#123,#101,.T.);
#155=EDGE_CURVE('',#124,#124,#102,.T.);
#156=EDGE_CURVE('',#124,#123,#103,.T.);
#157=ORIENTED_EDGE('',*,*,#125,.F.);
#158=ORIENTED_EDGE('',*,*,#126,.T.);
#159=ORIENTED_EDGE('',*,*,#127,.T.);
#160=ORIENTED_EDGE('',*,*,#126,.F.);
#161=ORIENTED_EDGE('',*,*,#128,.F.);
#162=ORIENTED_EDGE('',*,*,#129,.T.);
#163=ORIENTED_EDGE('',*,*,#125,.T.);
#164=ORIENTED_EDGE('',*,*,#129,.F.);
#165=ORIENTED_EDGE('',*,*,#130,.F.);
#166=ORIENTED_EDGE('',*,*,#131,.F.);
#167=ORIENTED_EDGE('',*,*,#132,.T.);
#168=ORIENTED_EDGE('',*,*,#130,.T.);
#169=ORIENTED_EDGE('',*,*,#128,.T.);
#170=ORIENTED_EDGE('',*,*,#132,.F.);
#171=ORIENTED_EDGE('',*,*,#131,.T.);
#172=ORIENTED_EDGE('',*,*,#133,.F.);
#173=ORIENTED_EDGE('',*,*,#133,.T.);
#174=ORIENTED_EDGE('',*,*,#134,.T.);
#175=ORIENTED_EDGE('',*,*,#135,.F.);
#176=ORIENTED_EDGE('',*,*,#136,.F.);
#177=ORIENTED_EDGE('',*,*,#134,.F.);
#178=ORIENTED_EDGE('',*,*,#137,.F.);
#179=ORIENTED_EDGE('',*,*,#138,.T.);
#180=ORIENTED_EDGE('',*,*,#135,.T.);
#181=ORIENTED_EDGE('',*,*,#136,.T.);
#182=ORIENTED_EDGE('',*,*,#138,.F.);
#183=ORIENTED_EDGE('',*,*,#137,.T.);
#184=ORIENTED_EDGE('',*,*,#139,.F.);
#185=ORIENTED_EDGE('',*,*,#139,.T.);
#186=ORIENTED_EDGE('',*,*,#140,.T.);
#187=ORIENTED_EDGE('',*,*,#141,.F.);
#188=ORIENTED_EDGE('',*,*,#142,.F.);
#189=ORIENTED_EDGE('',*,*,#140,.F.);
#190=ORIENTED_EDGE('',*,*,#143,.F.);
#191=ORIENTED_EDGE('',*,*,#144,.T.);
#192=ORIENTED_EDGE('',*,*,#141,.T.);
#193=ORIENTED_EDGE('',*,*,#142,.T.);
#194=ORIENTED_EDGE('',*,*,#144,.F.);
#195=ORIENTED_EDGE('',*,*,#145,.F.);
#196=ORIENTED_EDGE('',*,*,#146,.F.);
#197=ORIENTED_EDGE('',*,*,#147,.T.);
#198=ORIENTED_EDGE('',*,*,#145,.T.);
#199=ORIENTED_EDGE('',*,*,#143,.T.);
#200=ORIENTED_EDGE('',*,*,#147,.F.);
#201=ORIENTED_EDGE('',*,*,#146,.T.);
#202=ORIENTED_EDGE('',*,*,#148,.F.);
#203=ORIENTED_EDGE('',*,*,#149,.F.);
#204=ORIENTED_EDGE('',*,*,#150,.F.);
#205=ORIENTED_EDGE('',*,*,#151,.T.);
#206=ORIENTED_EDGE('',*,*,#148,.T.);
#207=ORIENTED_EDGE('',*,*,#151,.F.);
#208=ORIENTED_EDGE('',*,*,#149,.T.);
#209=ORIENTED_EDGE('',*,*,#150,.T.);
#210=ORIENTED_EDGE('',*,*,#152,.T.);
#211=ORIENTED_EDGE('',*,*,#153,.F.);
#212=ORIENTED_EDGE('',*,*,#154,.F.);
#213=ORIENTED_EDGE('',*,*,#152,.F.);
#214=ORIENTED_EDGE('',*,*,#155,.F.);
#215=ORIENTED_EDGE('',*,*,#156,.T.);
#216=ORIENTED_EDGE('',*,*,#153,.T.);
#217=ORIENTED_EDGE('',*,*,#154,.T.);
#218=ORIENTED_EDGE('',*,*,#156,.F.);
#219=ORIENTED_EDGE('',*,*,#127,.F.);
#220=ORIENTED_EDGE('',*,*,#155,.T.);
#221=CONICAL_SURFACE('',#259,2.125,0.785398163397448);
#222=ADVANCED_FACE('',(#33),#221,.T.);
#223=ADVANCED_FACE('',(#34),#29,.T.);
#224=ADVANCED_FACE('',(#35),#23,.T.);
#225=ADVANCED_FACE('',(#36,#15),#19,.T.);
#226=ADVANCED_FACE('',(#37),#24,.F.);
#227=ADVANCED_FACE('',(#38),#30,.T.);
#228=ADVANCED_FACE('',(#39,#16),#20,.T.);
#229=ADVANCED_FACE('',(#40),#25,.F.);
#230=ADVANCED_FACE('',(#41),#31,.T.);
#231=ADVANCED_FACE('',(#42),#26,.T.);
#232=ADVANCED_FACE('',(#43,#17),#21,.T.);
#233=ADVANCED_FACE('',(#44),#27,.T.);
#234=ADVANCED_FACE('',(#45),#32,.F.);
#235=ADVANCED_FACE('',(#46),#28,.T.);
#236=ADVANCED_FACE('',(#47,#18),#22,.T.);
#237=CLOSED_SHELL('',(#222,#223,#224,#225,#226,#227,#228,#229,#230,#231,
#232,#233,#234,#235,#236));
#238=DERIVED_UNIT_ELEMENT(#240,1.);
#239=DERIVED_UNIT_ELEMENT(#469,-3.);
#240=(
CONVERSION_BASED_UNIT('gram',#242)
MASS_UNIT()
NAMED_UNIT(#466)
);
#241=(
MASS_UNIT()
NAMED_UNIT(*)
SI_UNIT(.KILO.,.GRAM.)
);
#242=MASS_MEASURE_WITH_UNIT(MASS_MEASURE(0.001),#241);
#243=DERIVED_UNIT((#238,#239));
#244=MEASURE_REPRESENTATION_ITEM('density measure',
POSITIVE_RATIO_MEASURE(1.),#243);
#245=PROPERTY_DEFINITION_REPRESENTATION(#250,#247);
#246=PROPERTY_DEFINITION_REPRESENTATION(#251,#248);
#247=REPRESENTATION('material name',(#249),#463);
#248=REPRESENTATION('density',(#244),#463);
#249=DESCRIPTIVE_REPRESENTATION_ITEM('Generic','Generic');
#250=PROPERTY_DEFINITION('material property','material name',#477);
#251=PROPERTY_DEFINITION('material property','density of part',#477);
#252=DATE_TIME_ROLE('creation_date');
#253=APPLIED_DATE_AND_TIME_ASSIGNMENT(#254,#252,(#477));
#254=DATE_AND_TIME(#255,#256);
#255=CALENDAR_DATE(2007,9,8);
#256=LOCAL_TIME(0,0,0.,#257);
#257=COORDINATED_UNIVERSAL_TIME_OFFSET(0,0,.BEHIND.);
#258=AXIS2_PLACEMENT_3D('',#392,#301,#302);
#259=AXIS2_PLACEMENT_3D('',#393,#303,#304);
#260=AXIS2_PLACEMENT_3D('',#395,#305,#306);
#261=AXIS2_PLACEMENT_3D('',#398,#308,#309);
#262=AXIS2_PLACEMENT_3D('',#399,#310,#311);
#263=AXIS2_PLACEMENT_3D('',#402,#312,#313);
#264=AXIS2_PLACEMENT_3D('',#404,#315,#316);
#265=AXIS2_PLACEMENT_3D('',#405,#317,#318);
#266=AXIS2_PLACEMENT_3D('',#407,#319,#320);
#267=AXIS2_PLACEMENT_3D('',#408,#321,#322);
#268=AXIS2_PLACEMENT_3D('',#409,#323,#324);
#269=AXIS2_PLACEMENT_3D('',#411,#325,#326);
#270=AXIS2_PLACEMENT_3D('',#412,#327,#328);
#271=AXIS2_PLACEMENT_3D('',#414,#329,#330);
#272=AXIS2_PLACEMENT_3D('',#416,#331,#332);
#273=AXIS2_PLACEMENT_3D('',#417,#333,#334);
#274=AXIS2_PLACEMENT_3D('',#418,#335,#336);
#275=AXIS2_PLACEMENT_3D('',#420,#337,#338);
#276=AXIS2_PLACEMENT_3D('',#422,#340,#341);
#277=AXIS2_PLACEMENT_3D('',#424,#342,#343);
#278=AXIS2_PLACEMENT_3D('',#425,#344,#345);
#279=AXIS2_PLACEMENT_3D('',#427,#346,#347);
#280=AXIS2_PLACEMENT_3D('',#429,#348,#349);
#281=AXIS2_PLACEMENT_3D('',#430,#350,#351);
#282=AXIS2_PLACEMENT_3D('',#431,#352,#353);
#283=AXIS2_PLACEMENT_3D('',#434,#354,#355);
#284=AXIS2_PLACEMENT_3D('',#436,#357,#358);
#285=AXIS2_PLACEMENT_3D('',#437,#359,#360);
#286=AXIS2_PLACEMENT_3D('',#439,#361,#362);
#287=AXIS2_PLACEMENT_3D('',#440,#363,#364);
#288=AXIS2_PLACEMENT_3D('',#441,#365,#366);
#289=AXIS2_PLACEMENT_3D('',#443,#367,#368);
#290=AXIS2_PLACEMENT_3D('',#444,#369,#370);
#291=AXIS2_PLACEMENT_3D('',#447,#371,#372);
#292=AXIS2_PLACEMENT_3D('',#448,#373,#374);
#293=AXIS2_PLACEMENT_3D('',#449,#375,#376);
#294=AXIS2_PLACEMENT_3D('',#450,#377,#378);
#295=AXIS2_PLACEMENT_3D('',#454,#380,#381);
#296=AXIS2_PLACEMENT_3D('',#455,#382,#383);
#297=AXIS2_PLACEMENT_3D('',#456,#384,#385);
#298=AXIS2_PLACEMENT_3D('',#458,#386,#387);
#299=AXIS2_PLACEMENT_3D('',#459,#388,#389);
#300=AXIS2_PLACEMENT_3D('',#460,#390,#391);
#301=DIRECTION('axis',(0.,0.,1.));
#302=DIRECTION('refdir',(1.,0.,0.));
#303=DIRECTION('center_axis',(1.,0.,0.));
#304=DIRECTION('ref_axis',(0.,1.,0.));
#305=DIRECTION('center_axis',(1.,0.,0.));
#306=DIRECTION('ref_axis',(0.,1.,0.));
#307=DIRECTION('',(-0.707106781186547,0.707106781186547,8.65956056235493E-17));
#308=DIRECTION('center_axis',(1.,0.,0.));
#309=DIRECTION('ref_axis',(0.,1.,0.));
#310=DIRECTION('center_axis',(1.,0.,0.));
#311=DIRECTION('ref_axis',(0.,1.,0.));
#312=DIRECTION('center_axis',(1.,0.,0.));
#313=DIRECTION('ref_axis',(0.,1.,0.));
#314=DIRECTION('',(-1.,0.,0.));
#315=DIRECTION('center_axis',(1.,0.,0.));
#316=DIRECTION('ref_axis',(0.,1.,0.));
#317=DIRECTION('center_axis',(1.,0.,0.));
#318=DIRECTION('ref_axis',(0.,0.,-1.));
#319=DIRECTION('center_axis',(1.,0.,0.));
#320=DIRECTION('ref_axis',(0.,1.,0.));
#321=DIRECTION('center_axis',(0.,-1.,-1.22464679914735E-16));
#322=DIRECTION('ref_axis',(0.,-1.22464679914735E-16,1.));
#323=DIRECTION('center_axis',(1.,0.,0.));
#324=DIRECTION('ref_axis',(0.,0.,-1.));
#325=DIRECTION('center_axis',(1.,0.,0.));
#326=DIRECTION('ref_axis',(0.,1.,0.));
#327=DIRECTION('center_axis',(1.,0.,0.));
#328=DIRECTION('ref_axis',(0.,0.,-1.));
#329=DIRECTION('center_axis',(0.,-1.,-1.22464679914735E-16));
#330=DIRECTION('ref_axis',(0.,-1.22464679914735E-16,1.));
#331=DIRECTION('center_axis',(1.,0.,0.));
#332=DIRECTION('ref_axis',(0.,1.,0.));
#333=DIRECTION('center_axis',(1.,0.,0.));
#334=DIRECTION('ref_axis',(0.,1.,0.));
#335=DIRECTION('center_axis',(1.,0.,0.));
#336=DIRECTION('ref_axis',(0.,1.,0.));
#337=DIRECTION('center_axis',(1.,0.,0.));
#338=DIRECTION('ref_axis',(0.,1.,0.));
#339=DIRECTION('',(-1.,0.,0.));
#340=DIRECTION('center_axis',(1.,0.,0.));
#341=DIRECTION('ref_axis',(0.,0.,-1.));
#342=DIRECTION('center_axis',(1.,0.,0.));
#343=DIRECTION('ref_axis',(0.,1.,0.));
#344=DIRECTION('center_axis',(1.,0.,0.));
#345=DIRECTION('ref_axis',(0.,0.,-1.));
#346=DIRECTION('center_axis',(0.,-1.,-1.22464679914735E-16));
#347=DIRECTION('ref_axis',(0.,-1.22464679914735E-16,1.));
#348=DIRECTION('center_axis',(1.,0.,0.));
#349=DIRECTION('ref_axis',(0.,1.,0.));
#350=DIRECTION('center_axis',(1.,0.,0.));
#351=DIRECTION('ref_axis',(0.,1.,0.));
#352=DIRECTION('center_axis',(1.,0.,0.));
#353=DIRECTION('ref_axis',(0.,1.,0.));
#354=DIRECTION('center_axis',(1.,0.,0.));
#355=DIRECTION('ref_axis',(0.,1.,0.));
#356=DIRECTION('',(-1.,0.,0.));
#357=DIRECTION('center_axis',(1.,0.,0.));
#358=DIRECTION('ref_axis',(0.,1.,0.));
#359=DIRECTION('center_axis',(1.,0.,0.));
#360=DIRECTION('ref_axis',(0.,0.,-1.));
#361=DIRECTION('center_axis',(1.,0.,0.));
#362=DIRECTION('ref_axis',(0.,1.,0.));
#363=DIRECTION('center_axis',(0.,-1.,-1.22464679914735E-16));
#364=DIRECTION('ref_axis',(0.,-1.22464679914735E-16,1.));
#365=DIRECTION('center_axis',(1.,0.,0.));
#366=DIRECTION('ref_axis',(0.,0.,-1.));
#367=DIRECTION('center_axis',(1.,0.,0.));
#368=DIRECTION('ref_axis',(0.,1.,0.));
#369=DIRECTION('center_axis',(1.,0.,0.));
#370=DIRECTION('ref_axis',(0.,0.,-1.));
#371=DIRECTION('center_axis',(1.,0.,0.));
#372=DIRECTION('ref_axis',(0.,1.,0.));
#373=DIRECTION('center_axis',(1.,0.,0.));
#374=DIRECTION('ref_axis',(0.,1.,0.));
#375=DIRECTION('center_axis',(0.,-1.,-1.22464679914735E-16));
#376=DIRECTION('ref_axis',(0.,-1.22464679914735E-16,1.));
#377=DIRECTION('center_axis',(1.,0.,0.));
#378=DIRECTION('ref_axis',(0.,1.,0.));
#379=DIRECTION('',(-1.,0.,0.));
#380=DIRECTION('center_axis',(1.,0.,0.));
#381=DIRECTION('ref_axis',(0.,1.,0.));
#382=DIRECTION('center_axis',(1.,0.,0.));
#383=DIRECTION('ref_axis',(0.,1.,0.));
#384=DIRECTION('center_axis',(1.,0.,0.));
#385=DIRECTION('ref_axis',(0.,0.,-1.));
#386=DIRECTION('center_axis',(1.,0.,0.));
#387=DIRECTION('ref_axis',(0.,1.,0.));
#388=DIRECTION('center_axis',(0.,-1.,-1.22464679914735E-16));
#389=DIRECTION('ref_axis',(0.,-1.22464679914735E-16,1.));
#390=DIRECTION('center_axis',(-1.,0.,0.));
#391=DIRECTION('ref_axis',(0.,0.,1.));
#392=CARTESIAN_POINT('',(0.,0.,0.));
#393=CARTESIAN_POINT('Origin',(0.125,0.,0.));
#394=CARTESIAN_POINT('',(0.25,-2.25,-2.75545529808154E-16));
#395=CARTESIAN_POINT('Origin',(0.25,0.,0.));
#396=CARTESIAN_POINT('',(-3.93386111087654E-16,-2.,-2.44929359829471E-16));
#397=CARTESIAN_POINT('',(0.125,-2.125,-2.60237444818813E-16));
#398=CARTESIAN_POINT('Origin',(-3.66067631151011E-16,0.,0.));
#399=CARTESIAN_POINT('Origin',(0.3985,0.,0.));
#400=CARTESIAN_POINT('',(0.546999999999999,-2.25,-2.75545529808154E-16));
#401=CARTESIAN_POINT('',(0.546999999999999,-2.75545529808154E-16,2.25));
#402=CARTESIAN_POINT('Origin',(0.546999999999999,0.,0.));
#403=CARTESIAN_POINT('',(0.3985,-2.25,-2.75545529808154E-16));
#404=CARTESIAN_POINT('Origin',(0.546999999999999,0.,0.));
#405=CARTESIAN_POINT('Origin',(0.546999999999999,0.,0.));
#406=CARTESIAN_POINT('',(0.561999999999999,-2.73708559609433E-16,2.235));
#407=CARTESIAN_POINT('Origin',(0.561999999999999,0.,0.));
#408=CARTESIAN_POINT('Origin',(0.546999999999999,-2.73708559609433E-16,
2.235));
#409=CARTESIAN_POINT('Origin',(0.562,2.1895,0.));
#410=CARTESIAN_POINT('',(0.562,-2.62564273737192E-16,2.144));
#411=CARTESIAN_POINT('Origin',(0.562,0.,0.));
#412=CARTESIAN_POINT('Origin',(0.577,0.,0.));
#413=CARTESIAN_POINT('',(0.577,-2.60727303538471E-16,2.129));
#414=CARTESIAN_POINT('Origin',(0.577,-2.62564273737192E-16,2.144));
#415=CARTESIAN_POINT('',(0.577,-2.129,-2.60727303538471E-16));
#416=CARTESIAN_POINT('Origin',(0.577,0.,0.));
#417=CARTESIAN_POINT('Origin',(0.577,0.,0.));
#418=CARTESIAN_POINT('Origin',(0.6945,0.,0.));
#419=CARTESIAN_POINT('',(0.811999999999999,-2.129,-2.60727303538471E-16));
#420=CARTESIAN_POINT('Origin',(0.811999999999999,0.,0.));
#421=CARTESIAN_POINT('',(0.6945,-2.129,-2.60727303538471E-16));
#422=CARTESIAN_POINT('Origin',(0.811999999999999,2.087,0.));
#423=CARTESIAN_POINT('',(0.811999999999999,-2.50440270425634E-16,2.045));
#424=CARTESIAN_POINT('Origin',(0.812,0.,0.));
#425=CARTESIAN_POINT('Origin',(0.857,0.,0.));
#426=CARTESIAN_POINT('',(0.857,-2.44929359829471E-16,2.));
#427=CARTESIAN_POINT('Origin',(0.857,-2.50440270425634E-16,2.045));
#428=CARTESIAN_POINT('',(0.857,-2.,-2.44929359829471E-16));
#429=CARTESIAN_POINT('Origin',(0.857,0.,0.));
#430=CARTESIAN_POINT('Origin',(0.857,0.,0.));
#431=CARTESIAN_POINT('Origin',(0.928499999999999,0.,0.));
#432=CARTESIAN_POINT('',(0.999999999999999,-2.,-2.44929359829471E-16));
#433=CARTESIAN_POINT('',(0.999999999999999,-2.44929359829471E-16,2.));
#434=CARTESIAN_POINT('Origin',(0.999999999999999,0.,0.));
#435=CARTESIAN_POINT('',(0.928499999999999,-2.,-2.44929359829471E-16));
#436=CARTESIAN_POINT('Origin',(0.999999999999999,0.,0.));
#437=CARTESIAN_POINT('Origin',(0.999999999999999,0.,0.));
#438=CARTESIAN_POINT('',(1.005,-2.44317036429897E-16,1.995));
#439=CARTESIAN_POINT('Origin',(1.005,0.,0.));
#440=CARTESIAN_POINT('Origin',(0.999999999999999,-2.44317036429897E-16,
1.995));
#441=CARTESIAN_POINT('Origin',(1.005,1.9585,0.));
#442=CARTESIAN_POINT('',(1.005,-2.35377114796121E-16,1.922));
#443=CARTESIAN_POINT('Origin',(1.005,0.,0.));
#444=CARTESIAN_POINT('Origin',(0.999999999999999,0.,0.));
#445=CARTESIAN_POINT('',(0.999999999999999,-1.917,-2.34764791396548E-16));
#446=CARTESIAN_POINT('',(0.999999999999999,-2.34764791396548E-16,1.917));
#447=CARTESIAN_POINT('Origin',(0.999999999999999,0.,0.));
#448=CARTESIAN_POINT('Origin',(0.999999999999999,0.,0.));
#449=CARTESIAN_POINT('Origin',(0.999999999999999,-2.35377114796121E-16,
1.922));
#450=CARTESIAN_POINT('Origin',(0.5025,0.,0.));
#451=CARTESIAN_POINT('',(0.00499999999999962,-1.917,-2.34764791396548E-16));
#452=CARTESIAN_POINT('',(0.5025,-1.917,-2.34764791396548E-16));
#453=CARTESIAN_POINT('',(0.00499999999999963,-2.34764791396548E-16,1.917));
#454=CARTESIAN_POINT('Origin',(0.00499999999999963,0.,0.));
#455=CARTESIAN_POINT('Origin',(0.00499999999999963,0.,0.));
#456=CARTESIAN_POINT('Origin',(0.00499999999999962,0.,0.));
#457=CARTESIAN_POINT('',(-3.53091353181106E-16,-2.35377114796121E-16,1.922));
#458=CARTESIAN_POINT('Origin',(-3.53091353181106E-16,0.,0.));
#459=CARTESIAN_POINT('Origin',(0.00499999999999962,-2.35377114796121E-16,
1.922));
#460=CARTESIAN_POINT('Origin',(-3.59579492166059E-16,1.961,0.));
#461=UNCERTAINTY_MEASURE_WITH_UNIT(LENGTH_MEASURE(0.000393700787401575),
#467,'DISTANCE_ACCURACY_VALUE',
'Maximum model space distance between geometric entities at asserted c
onnectivities');
#462=UNCERTAINTY_MEASURE_WITH_UNIT(LENGTH_MEASURE(0.000393700787401575),
#467,'DISTANCE_ACCURACY_VALUE',
'Maximum model space distance between geometric entities at asserted c
onnectivities');
#463=(
GEOMETRIC_REPRESENTATION_CONTEXT(3)
GLOBAL_UNCERTAINTY_ASSIGNED_CONTEXT((#461))
GLOBAL_UNIT_ASSIGNED_CONTEXT((#467,#471,#472))
REPRESENTATION_CONTEXT('','3D')
);
#464=(
GEOMETRIC_REPRESENTATION_CONTEXT(3)
GLOBAL_UNCERTAINTY_ASSIGNED_CONTEXT((#462))
GLOBAL_UNIT_ASSIGNED_CONTEXT((#467,#471,#472))
REPRESENTATION_CONTEXT('','3D')
);
#465=DIMENSIONAL_EXPONENTS(1.,0.,0.,0.,0.,0.,0.);
#466=DIMENSIONAL_EXPONENTS(0.,1.,0.,0.,0.,0.,0.);
#467=(
CONVERSION_BASED_UNIT('inch',#470)
LENGTH_UNIT()
NAMED_UNIT(#465)
);
#468=(
LENGTH_UNIT()
NAMED_UNIT(*)
SI_UNIT(.MILLI.,.METRE.)
);
#469=(
LENGTH_UNIT()
NAMED_UNIT(*)
SI_UNIT(.CENTI.,.METRE.)
);
#470=LENGTH_MEASURE_WITH_UNIT(LENGTH_MEASURE(25.4),#468);
#471=(
NAMED_UNIT(*)
PLANE_ANGLE_UNIT()
SI_UNIT($,.RADIAN.)
);
#472=(
NAMED_UNIT(*)
SI_UNIT($,.STERADIAN.)
SOLID_ANGLE_UNIT()
);
#473=SHAPE_DEFINITION_REPRESENTATION(#474,#475);
#474=PRODUCT_DEFINITION_SHAPE('',$,#477);
#475=SHAPE_REPRESENTATION('',(#258),#463);
#476=PRODUCT_DEFINITION_CONTEXT('part definition',#481,'design');
#477=PRODUCT_DEFINITION('14PRF-4','14PRF-4',#478,#476);
#478=PRODUCT_DEFINITION_FORMATION('',$,#483);
#479=PRODUCT_RELATED_PRODUCT_CATEGORY('14PRF-4','14PRF-4',(#483));
#480=APPLICATION_PROTOCOL_DEFINITION('international standard',
'automotive_design',2009,#481);
#481=APPLICATION_CONTEXT(
'Core Data for Automotive Mechanical Design Process');
#482=PRODUCT_CONTEXT('part definition',#481,'mechanical');
#483=PRODUCT('14PRF-4','14PRF-4',$,(#482));
#484=PRESENTATION_STYLE_ASSIGNMENT((#485));
#485=SURFACE_STYLE_USAGE(.BOTH.,#488);
#486=SURFACE_STYLE_RENDERING_WITH_PROPERTIES($,#492,(#487));
#487=SURFACE_STYLE_TRANSPARENT(0.);
#488=SURFACE_SIDE_STYLE('',(#489,#486));
#489=SURFACE_STYLE_FILL_AREA(#490);
#490=FILL_AREA_STYLE('',(#491));
#491=FILL_AREA_STYLE_COLOUR('',#492);
#492=COLOUR_RGB('',0.749019607843137,0.749019607843137,0.749019607843137);
ENDSEC;
END-ISO-10303-21;
