ISO-10303-21;
HEADER;
/* Generated by software containing ST-Developer
 * from STEP Tools, Inc. (www.steptools.com) 
 */

FILE_DESCRIPTION(
/* description */ (''),
/* implementation_level */ '2;1');

FILE_NAME(
/* name */ 
'W:\\AUTOCAD\\AutoCad - Projects\\Numbered\\19MPX\\STEP FILES\\19MPX-2.
stp',
/* time_stamp */ '2020-09-02T06:48:47-04:00',
/* author */ ('ken'),
/* organization */ (''),
/* preprocessor_version */ 'ST-DEVELOPER v15.2',
/* originating_system */ 'Autodesk Inventor 2014',
/* authorisation */ '');

FILE_SCHEMA (('AUTOMOTIVE_DESIGN { 1 0 10303 214 3 1 1 }'));
ENDSEC;

DATA;
#10=MECHANICAL_DESIGN_GEOMETRIC_PRESENTATION_REPRESENTATION('',(#13),#483);
#11=SHAPE_REPRESENTATION_RELATIONSHIP('SRR','None',#495,#12);
#12=ADVANCED_BREP_SHAPE_REPRESENTATION($,(#268),#482);
#13=STYLED_ITEM('',(#504),#268);
#14=CONICAL_SURFACE('',#279,1.00675,14.3115291977098);
#15=CONICAL_SURFACE('',#294,1.177,70.0000000000001);
#16=CONICAL_SURFACE('',#298,1.14175,44.9999999999999);
#17=CONICAL_SURFACE('',#308,1.15934489404673,23.0000000000005);
#18=CONICAL_SURFACE('',#313,1.05865510595327,23.0000000000004);
#19=PLANE('',#275);
#20=PLANE('',#284);
#21=PLANE('',#310);
#22=CYLINDRICAL_SURFACE('',#273,0.935);
#23=CYLINDRICAL_SURFACE('',#286,1.1875);
#24=CYLINDRICAL_SURFACE('',#292,1.096);
#25=CYLINDRICAL_SURFACE('',#303,1.258);
#26=FACE_BOUND('',#73,.T.);
#27=FACE_BOUND('',#75,.T.);
#28=FACE_BOUND('',#77,.T.);
#29=FACE_BOUND('',#79,.T.);
#30=FACE_BOUND('',#81,.T.);
#31=FACE_BOUND('',#83,.T.);
#32=FACE_BOUND('',#84,.T.);
#33=FACE_BOUND('',#85,.T.);
#34=FACE_BOUND('',#87,.T.);
#35=FACE_BOUND('',#89,.T.);
#36=FACE_BOUND('',#91,.T.);
#37=FACE_BOUND('',#93,.T.);
#38=FACE_BOUND('',#95,.T.);
#39=FACE_BOUND('',#97,.T.);
#40=FACE_BOUND('',#99,.T.);
#41=FACE_BOUND('',#101,.T.);
#42=FACE_BOUND('',#103,.T.);
#43=FACE_BOUND('',#105,.T.);
#44=FACE_BOUND('',#107,.T.);
#45=FACE_BOUND('',#109,.T.);
#46=FACE_BOUND('',#111,.T.);
#47=FACE_BOUND('',#113,.T.);
#48=FACE_BOUND('',#115,.T.);
#49=FACE_BOUND('',#117,.T.);
#50=FACE_OUTER_BOUND('',#72,.T.);
#51=FACE_OUTER_BOUND('',#74,.T.);
#52=FACE_OUTER_BOUND('',#76,.T.);
#53=FACE_OUTER_BOUND('',#78,.T.);
#54=FACE_OUTER_BOUND('',#80,.T.);
#55=FACE_OUTER_BOUND('',#82,.T.);
#56=FACE_OUTER_BOUND('',#86,.T.);
#57=FACE_OUTER_BOUND('',#88,.T.);
#58=FACE_OUTER_BOUND('',#90,.T.);
#59=FACE_OUTER_BOUND('',#92,.T.);
#60=FACE_OUTER_BOUND('',#94,.T.);
#61=FACE_OUTER_BOUND('',#96,.T.);
#62=FACE_OUTER_BOUND('',#98,.T.);
#63=FACE_OUTER_BOUND('',#100,.T.);
#64=FACE_OUTER_BOUND('',#102,.T.);
#65=FACE_OUTER_BOUND('',#104,.T.);
#66=FACE_OUTER_BOUND('',#106,.T.);
#67=FACE_OUTER_BOUND('',#108,.T.);
#68=FACE_OUTER_BOUND('',#110,.T.);
#69=FACE_OUTER_BOUND('',#112,.T.);
#70=FACE_OUTER_BOUND('',#114,.T.);
#71=FACE_OUTER_BOUND('',#116,.T.);
#72=EDGE_LOOP('',(#187));
#73=EDGE_LOOP('',(#188));
#74=EDGE_LOOP('',(#189));
#75=EDGE_LOOP('',(#190));
#76=EDGE_LOOP('',(#191));
#77=EDGE_LOOP('',(#192));
#78=EDGE_LOOP('',(#193));
#79=EDGE_LOOP('',(#194));
#80=EDGE_LOOP('',(#195));
#81=EDGE_LOOP('',(#196));
#82=EDGE_LOOP('',(#197));
#83=EDGE_LOOP('',(#198));
#84=EDGE_LOOP('',(#199));
#85=EDGE_LOOP('',(#200));
#86=EDGE_LOOP('',(#201));
#87=EDGE_LOOP('',(#202));
#88=EDGE_LOOP('',(#203));
#89=EDGE_LOOP('',(#204));
#90=EDGE_LOOP('',(#205));
#91=EDGE_LOOP('',(#206));
#92=EDGE_LOOP('',(#207));
#93=EDGE_LOOP('',(#208));
#94=EDGE_LOOP('',(#209));
#95=EDGE_LOOP('',(#210));
#96=EDGE_LOOP('',(#211));
#97=EDGE_LOOP('',(#212));
#98=EDGE_LOOP('',(#213));
#99=EDGE_LOOP('',(#214));
#100=EDGE_LOOP('',(#215));
#101=EDGE_LOOP('',(#216));
#102=EDGE_LOOP('',(#217));
#103=EDGE_LOOP('',(#218));
#104=EDGE_LOOP('',(#219));
#105=EDGE_LOOP('',(#220));
#106=EDGE_LOOP('',(#221));
#107=EDGE_LOOP('',(#222));
#108=EDGE_LOOP('',(#223));
#109=EDGE_LOOP('',(#224));
#110=EDGE_LOOP('',(#225));
#111=EDGE_LOOP('',(#226));
#112=EDGE_LOOP('',(#227));
#113=EDGE_LOOP('',(#228));
#114=EDGE_LOOP('',(#229));
#115=EDGE_LOOP('',(#230));
#116=EDGE_LOOP('',(#231));
#117=EDGE_LOOP('',(#232));
#118=CIRCLE('',#271,0.935);
#119=CIRCLE('',#272,0.965);
#120=CIRCLE('',#274,0.935);
#121=CIRCLE('',#276,1.03833622879489);
#122=CIRCLE('',#278,0.935465509849396);
#123=CIRCLE('',#280,1.07753975411864);
#124=CIRCLE('',#282,1.1875);
#125=CIRCLE('',#283,1.1825);
#126=CIRCLE('',#285,1.08238458416884);
#127=CIRCLE('',#287,1.1875);
#128=CIRCLE('',#290,1.12560909355034);
#129=CIRCLE('',#291,1.096);
#130=CIRCLE('',#293,1.096);
#131=CIRCLE('',#295,1.24813030214989);
#132=CIRCLE('',#297,1.16992640687119);
#133=CIRCLE('',#299,1.11357359312881);
#134=CIRCLE('',#302,1.258);
#135=CIRCLE('',#304,1.258);
#136=CIRCLE('',#306,1.16125367413606);
#137=CIRCLE('',#307,1.17966377120511);
#138=CIRCLE('',#309,1.15226372811226);
#139=CIRCLE('',#312,1.05674632586394);
#140=CIRCLE('',#314,1.06573627188774);
#141=VERTEX_POINT('',#412);
#142=VERTEX_POINT('',#414);
#143=VERTEX_POINT('',#417);
#144=VERTEX_POINT('',#420);
#145=VERTEX_POINT('',#423);
#146=VERTEX_POINT('',#426);
#147=VERTEX_POINT('',#429);
#148=VERTEX_POINT('',#431);
#149=VERTEX_POINT('',#434);
#150=VERTEX_POINT('',#437);
#151=VERTEX_POINT('',#441);
#152=VERTEX_POINT('',#443);
#153=VERTEX_POINT('',#446);
#154=VERTEX_POINT('',#449);
#155=VERTEX_POINT('',#452);
#156=VERTEX_POINT('',#455);
#157=VERTEX_POINT('',#459);
#158=VERTEX_POINT('',#462);
#159=VERTEX_POINT('',#465);
#160=VERTEX_POINT('',#467);
#161=VERTEX_POINT('',#470);
#162=VERTEX_POINT('',#474);
#163=VERTEX_POINT('',#477);
#164=EDGE_CURVE('',#141,#141,#118,.T.);
#165=EDGE_CURVE('',#142,#142,#119,.T.);
#166=EDGE_CURVE('',#143,#143,#120,.T.);
#167=EDGE_CURVE('',#144,#144,#121,.T.);
#168=EDGE_CURVE('',#145,#145,#122,.T.);
#169=EDGE_CURVE('',#146,#146,#123,.T.);
#170=EDGE_CURVE('',#147,#147,#124,.T.);
#171=EDGE_CURVE('',#148,#148,#125,.T.);
#172=EDGE_CURVE('',#149,#149,#126,.T.);
#173=EDGE_CURVE('',#150,#150,#127,.T.);
#174=EDGE_CURVE('',#151,#151,#128,.T.);
#175=EDGE_CURVE('',#152,#152,#129,.T.);
#176=EDGE_CURVE('',#153,#153,#130,.T.);
#177=EDGE_CURVE('',#154,#154,#131,.T.);
#178=EDGE_CURVE('',#155,#155,#132,.T.);
#179=EDGE_CURVE('',#156,#156,#133,.T.);
#180=EDGE_CURVE('',#157,#157,#134,.T.);
#181=EDGE_CURVE('',#158,#158,#135,.T.);
#182=EDGE_CURVE('',#159,#159,#136,.T.);
#183=EDGE_CURVE('',#160,#160,#137,.T.);
#184=EDGE_CURVE('',#161,#161,#138,.T.);
#185=EDGE_CURVE('',#162,#162,#139,.T.);
#186=EDGE_CURVE('',#163,#163,#140,.T.);
#187=ORIENTED_EDGE('',*,*,#164,.T.);
#188=ORIENTED_EDGE('',*,*,#165,.T.);
#189=ORIENTED_EDGE('',*,*,#166,.F.);
#190=ORIENTED_EDGE('',*,*,#164,.F.);
#191=ORIENTED_EDGE('',*,*,#167,.F.);
#192=ORIENTED_EDGE('',*,*,#165,.F.);
#193=ORIENTED_EDGE('',*,*,#168,.T.);
#194=ORIENTED_EDGE('',*,*,#166,.T.);
#195=ORIENTED_EDGE('',*,*,#169,.F.);
#196=ORIENTED_EDGE('',*,*,#168,.F.);
#197=ORIENTED_EDGE('',*,*,#170,.T.);
#198=ORIENTED_EDGE('',*,*,#171,.T.);
#199=ORIENTED_EDGE('',*,*,#172,.F.);
#200=ORIENTED_EDGE('',*,*,#171,.F.);
#201=ORIENTED_EDGE('',*,*,#173,.F.);
#202=ORIENTED_EDGE('',*,*,#170,.F.);
#203=ORIENTED_EDGE('',*,*,#172,.T.);
#204=ORIENTED_EDGE('',*,*,#169,.T.);
#205=ORIENTED_EDGE('',*,*,#174,.T.);
#206=ORIENTED_EDGE('',*,*,#175,.T.);
#207=ORIENTED_EDGE('',*,*,#176,.F.);
#208=ORIENTED_EDGE('',*,*,#175,.F.);
#209=ORIENTED_EDGE('',*,*,#177,.F.);
#210=ORIENTED_EDGE('',*,*,#174,.F.);
#211=ORIENTED_EDGE('',*,*,#178,.T.);
#212=ORIENTED_EDGE('',*,*,#173,.T.);
#213=ORIENTED_EDGE('',*,*,#179,.F.);
#214=ORIENTED_EDGE('',*,*,#178,.F.);
#215=ORIENTED_EDGE('',*,*,#176,.T.);
#216=ORIENTED_EDGE('',*,*,#179,.T.);
#217=ORIENTED_EDGE('',*,*,#180,.T.);
#218=ORIENTED_EDGE('',*,*,#177,.T.);
#219=ORIENTED_EDGE('',*,*,#181,.T.);
#220=ORIENTED_EDGE('',*,*,#180,.F.);
#221=ORIENTED_EDGE('',*,*,#182,.T.);
#222=ORIENTED_EDGE('',*,*,#183,.T.);
#223=ORIENTED_EDGE('',*,*,#184,.T.);
#224=ORIENTED_EDGE('',*,*,#182,.F.);
#225=ORIENTED_EDGE('',*,*,#181,.F.);
#226=ORIENTED_EDGE('',*,*,#183,.F.);
#227=ORIENTED_EDGE('',*,*,#167,.T.);
#228=ORIENTED_EDGE('',*,*,#185,.T.);
#229=ORIENTED_EDGE('',*,*,#186,.F.);
#230=ORIENTED_EDGE('',*,*,#185,.F.);
#231=ORIENTED_EDGE('',*,*,#184,.F.);
#232=ORIENTED_EDGE('',*,*,#186,.T.);
#233=TOROIDAL_SURFACE('',#270,0.965,0.03);
#234=TOROIDAL_SURFACE('',#277,0.95,0.015);
#235=TOROIDAL_SURFACE('',#281,1.1825,0.005);
#236=TOROIDAL_SURFACE('',#288,1.08238458416884,0.005);
#237=TOROIDAL_SURFACE('',#289,1.141,0.045);
#238=TOROIDAL_SURFACE('',#296,1.1275,0.06);
#239=TOROIDAL_SURFACE('',#300,1.156,0.06);
#240=TOROIDAL_SURFACE('',#301,1.243,0.015);
#241=TOROIDAL_SURFACE('',#305,1.17966377120511,0.02);
#242=TOROIDAL_SURFACE('',#311,1.03833622879489,0.02);
#243=TOROIDAL_SURFACE('',#315,1.109,0.047);
#244=ADVANCED_FACE('',(#50,#26),#233,.T.);
#245=ADVANCED_FACE('',(#51,#27),#22,.F.);
#246=ADVANCED_FACE('',(#52,#28),#19,.T.);
#247=ADVANCED_FACE('',(#53,#29),#234,.T.);
#248=ADVANCED_FACE('',(#54,#30),#14,.F.);
#249=ADVANCED_FACE('',(#55,#31),#235,.T.);
#250=ADVANCED_FACE('',(#32,#33),#20,.T.);
#251=ADVANCED_FACE('',(#56,#34),#23,.T.);
#252=ADVANCED_FACE('',(#57,#35),#236,.T.);
#253=ADVANCED_FACE('',(#58,#36),#237,.F.);
#254=ADVANCED_FACE('',(#59,#37),#24,.T.);
#255=ADVANCED_FACE('',(#60,#38),#15,.T.);
#256=ADVANCED_FACE('',(#61,#39),#238,.T.);
#257=ADVANCED_FACE('',(#62,#40),#16,.T.);
#258=ADVANCED_FACE('',(#63,#41),#239,.F.);
#259=ADVANCED_FACE('',(#64,#42),#240,.T.);
#260=ADVANCED_FACE('',(#65,#43),#25,.T.);
#261=ADVANCED_FACE('',(#66,#44),#241,.T.);
#262=ADVANCED_FACE('',(#67,#45),#17,.F.);
#263=ADVANCED_FACE('',(#68,#46),#21,.T.);
#264=ADVANCED_FACE('',(#69,#47),#242,.T.);
#265=ADVANCED_FACE('',(#70,#48),#18,.T.);
#266=ADVANCED_FACE('',(#71,#49),#243,.F.);
#267=CLOSED_SHELL('',(#244,#245,#246,#247,#248,#249,#250,#251,#252,#253,
#254,#255,#256,#257,#258,#259,#260,#261,#262,#263,#264,#265,#266));
#268=MANIFOLD_SOLID_BREP('Solid1',#267);
#269=AXIS2_PLACEMENT_3D('placement',#410,#316,#317);
#270=AXIS2_PLACEMENT_3D('',#411,#318,#319);
#271=AXIS2_PLACEMENT_3D('',#413,#320,#321);
#272=AXIS2_PLACEMENT_3D('',#415,#322,#323);
#273=AXIS2_PLACEMENT_3D('',#416,#324,#325);
#274=AXIS2_PLACEMENT_3D('',#418,#326,#327);
#275=AXIS2_PLACEMENT_3D('',#419,#328,#329);
#276=AXIS2_PLACEMENT_3D('',#421,#330,#331);
#277=AXIS2_PLACEMENT_3D('',#422,#332,#333);
#278=AXIS2_PLACEMENT_3D('',#424,#334,#335);
#279=AXIS2_PLACEMENT_3D('',#425,#336,#337);
#280=AXIS2_PLACEMENT_3D('',#427,#338,#339);
#281=AXIS2_PLACEMENT_3D('',#428,#340,#341);
#282=AXIS2_PLACEMENT_3D('',#430,#342,#343);
#283=AXIS2_PLACEMENT_3D('',#432,#344,#345);
#284=AXIS2_PLACEMENT_3D('',#433,#346,#347);
#285=AXIS2_PLACEMENT_3D('',#435,#348,#349);
#286=AXIS2_PLACEMENT_3D('',#436,#350,#351);
#287=AXIS2_PLACEMENT_3D('',#438,#352,#353);
#288=AXIS2_PLACEMENT_3D('',#439,#354,#355);
#289=AXIS2_PLACEMENT_3D('',#440,#356,#357);
#290=AXIS2_PLACEMENT_3D('',#442,#358,#359);
#291=AXIS2_PLACEMENT_3D('',#444,#360,#361);
#292=AXIS2_PLACEMENT_3D('',#445,#362,#363);
#293=AXIS2_PLACEMENT_3D('',#447,#364,#365);
#294=AXIS2_PLACEMENT_3D('',#448,#366,#367);
#295=AXIS2_PLACEMENT_3D('',#450,#368,#369);
#296=AXIS2_PLACEMENT_3D('',#451,#370,#371);
#297=AXIS2_PLACEMENT_3D('',#453,#372,#373);
#298=AXIS2_PLACEMENT_3D('',#454,#374,#375);
#299=AXIS2_PLACEMENT_3D('',#456,#376,#377);
#300=AXIS2_PLACEMENT_3D('',#457,#378,#379);
#301=AXIS2_PLACEMENT_3D('',#458,#380,#381);
#302=AXIS2_PLACEMENT_3D('',#460,#382,#383);
#303=AXIS2_PLACEMENT_3D('',#461,#384,#385);
#304=AXIS2_PLACEMENT_3D('',#463,#386,#387);
#305=AXIS2_PLACEMENT_3D('',#464,#388,#389);
#306=AXIS2_PLACEMENT_3D('',#466,#390,#391);
#307=AXIS2_PLACEMENT_3D('',#468,#392,#393);
#308=AXIS2_PLACEMENT_3D('',#469,#394,#395);
#309=AXIS2_PLACEMENT_3D('',#471,#396,#397);
#310=AXIS2_PLACEMENT_3D('',#472,#398,#399);
#311=AXIS2_PLACEMENT_3D('',#473,#400,#401);
#312=AXIS2_PLACEMENT_3D('',#475,#402,#403);
#313=AXIS2_PLACEMENT_3D('',#476,#404,#405);
#314=AXIS2_PLACEMENT_3D('',#478,#406,#407);
#315=AXIS2_PLACEMENT_3D('',#479,#408,#409);
#316=DIRECTION('axis',(0.,0.,1.));
#317=DIRECTION('refdir',(1.,0.,0.));
#318=DIRECTION('center_axis',(1.,5.51091059616309E-016,0.));
#319=DIRECTION('ref_axis',(0.,0.,-1.));
#320=DIRECTION('center_axis',(1.,5.51091059616309E-016,0.));
#321=DIRECTION('ref_axis',(5.49291361292921E-016,-1.,1.22464679914735E-016));
#322=DIRECTION('center_axis',(-1.,-5.51091059616309E-016,0.));
#323=DIRECTION('ref_axis',(5.51091059616309E-016,-1.,1.22464679914735E-016));
#324=DIRECTION('center_axis',(1.,5.51091059616309E-016,0.));
#325=DIRECTION('ref_axis',(-5.51089392750126E-016,1.,0.));
#326=DIRECTION('center_axis',(-1.,-5.51091059616309E-016,0.));
#327=DIRECTION('ref_axis',(5.51117462892964E-016,-1.,1.22464679914735E-016));
#328=DIRECTION('center_axis',(-1.,-5.51091059616309E-016,0.));
#329=DIRECTION('ref_axis',(0.,0.,1.));
#330=DIRECTION('center_axis',(1.,5.51091059616309E-016,0.));
#331=DIRECTION('ref_axis',(5.51091059616309E-016,-1.,1.22464679914735E-016));
#332=DIRECTION('center_axis',(1.,5.51091059616309E-016,0.));
#333=DIRECTION('ref_axis',(0.,0.,-1.));
#334=DIRECTION('center_axis',(1.,6.54149131248369E-016,-1.93374934817326E-031));
#335=DIRECTION('ref_axis',(6.54149131248369E-016,-1.,0.));
#336=DIRECTION('center_axis',(1.,5.51091059616309E-016,0.));
#337=DIRECTION('ref_axis',(-5.51089392750126E-016,1.,0.));
#338=DIRECTION('center_axis',(-1.,-3.24513821278955E-016,7.67154221738392E-032));
#339=DIRECTION('ref_axis',(3.24513821278955E-016,-1.,0.));
#340=DIRECTION('center_axis',(1.,5.51091059616309E-016,0.));
#341=DIRECTION('ref_axis',(0.,0.,-1.));
#342=DIRECTION('center_axis',(1.,5.51091059616309E-016,0.));
#343=DIRECTION('ref_axis',(5.50970605880077E-016,-1.,1.22464679914735E-016));
#344=DIRECTION('center_axis',(-1.,-5.51091059616309E-016,0.));
#345=DIRECTION('ref_axis',(5.51091059616309E-016,-1.,1.22464679914735E-016));
#346=DIRECTION('center_axis',(1.,5.51091059616309E-016,0.));
#347=DIRECTION('ref_axis',(0.,0.,-1.));
#348=DIRECTION('center_axis',(1.,5.51091059616309E-016,0.));
#349=DIRECTION('ref_axis',(5.51091059616309E-016,-1.,1.22464679914735E-016));
#350=DIRECTION('center_axis',(1.,5.51091059616309E-016,0.));
#351=DIRECTION('ref_axis',(-5.51089392750126E-016,1.,0.));
#352=DIRECTION('center_axis',(-1.,-5.51091059616309E-016,0.));
#353=DIRECTION('ref_axis',(5.52120857666883E-016,-1.,1.22464679914735E-016));
#354=DIRECTION('center_axis',(1.,5.51091059616309E-016,0.));
#355=DIRECTION('ref_axis',(0.,0.,-1.));
#356=DIRECTION('center_axis',(1.,5.51091059616309E-016,0.));
#357=DIRECTION('ref_axis',(0.,0.,-1.));
#358=DIRECTION('center_axis',(1.,5.82478874980853E-016,-1.38463235493291E-031));
#359=DIRECTION('ref_axis',(5.82478874980853E-016,-1.,0.));
#360=DIRECTION('center_axis',(-1.,-5.51091059616309E-016,0.));
#361=DIRECTION('ref_axis',(5.53348772439294E-016,-1.,1.22464679914735E-016));
#362=DIRECTION('center_axis',(1.,5.51091059616309E-016,0.));
#363=DIRECTION('ref_axis',(-5.51089392750126E-016,1.,0.));
#364=DIRECTION('center_axis',(1.,5.51091059616309E-016,0.));
#365=DIRECTION('ref_axis',(5.53348772439294E-016,-1.,1.22464679914735E-016));
#366=DIRECTION('center_axis',(-1.,-5.51091059616309E-016,0.));
#367=DIRECTION('ref_axis',(-5.51089392750126E-016,1.,0.));
#368=DIRECTION('center_axis',(-1.,-5.6032057323937E-016,1.75100179137304E-017));
#369=DIRECTION('ref_axis',(5.6032057323937E-016,-1.,0.));
#370=DIRECTION('center_axis',(1.,5.51091059616309E-016,0.));
#371=DIRECTION('ref_axis',(0.,0.,-1.));
#372=DIRECTION('center_axis',(1.,4.4833146059698E-016,-7.47219100994967E-017));
#373=DIRECTION('ref_axis',(4.4833146059698E-016,-1.,0.));
#374=DIRECTION('center_axis',(1.,5.51091059616309E-016,0.));
#375=DIRECTION('ref_axis',(-5.51089392750126E-016,1.,0.));
#376=DIRECTION('center_axis',(-1.,-5.49522684766118E-016,-7.8503240680874E-017));
#377=DIRECTION('ref_axis',(5.49522684766118E-016,-1.,0.));
#378=DIRECTION('center_axis',(1.,5.51091059616309E-016,0.));
#379=DIRECTION('ref_axis',(0.,0.,-1.));
#380=DIRECTION('center_axis',(1.,5.51091059616309E-016,0.));
#381=DIRECTION('ref_axis',(0.,0.,-1.));
#382=DIRECTION('center_axis',(1.,5.51091059616309E-016,0.));
#383=DIRECTION('ref_axis',(5.5158139140757E-016,-1.,1.22464679914735E-016));
#384=DIRECTION('center_axis',(1.,5.51091059616309E-016,0.));
#385=DIRECTION('ref_axis',(-5.51089392750126E-016,1.,0.));
#386=DIRECTION('center_axis',(1.,5.51091059616309E-016,0.));
#387=DIRECTION('ref_axis',(-5.51089392750126E-016,1.,0.));
#388=DIRECTION('center_axis',(1.,5.51091059616309E-016,0.));
#389=DIRECTION('ref_axis',(0.,0.,-1.));
#390=DIRECTION('center_axis',(1.,5.51660992582756E-016,-1.17624945113603E-018));
#391=DIRECTION('ref_axis',(5.51660992582756E-016,-1.,1.67155100589289E-032));
#392=DIRECTION('center_axis',(-1.,-5.51091059616309E-016,0.));
#393=DIRECTION('ref_axis',(5.51091059616309E-016,-1.,1.22464679914735E-016));
#394=DIRECTION('center_axis',(-1.,-5.51091059616309E-016,0.));
#395=DIRECTION('ref_axis',(-5.51089392750126E-016,1.,0.));
#396=DIRECTION('center_axis',(1.,5.51091059616309E-016,0.));
#397=DIRECTION('ref_axis',(-5.51089392750126E-016,1.,0.));
#398=DIRECTION('center_axis',(-1.,-5.51091059616309E-016,0.));
#399=DIRECTION('ref_axis',(0.,0.,1.));
#400=DIRECTION('center_axis',(1.,5.51091059616309E-016,0.));
#401=DIRECTION('ref_axis',(0.,0.,-1.));
#402=DIRECTION('center_axis',(-1.,-5.49344421121175E-016,8.48504293315953E-032));
#403=DIRECTION('ref_axis',(5.49344421121175E-016,-1.,0.));
#404=DIRECTION('center_axis',(1.,5.51091059616309E-016,0.));
#405=DIRECTION('ref_axis',(-5.51089392750126E-016,1.,0.));
#406=DIRECTION('center_axis',(1.,5.51091059616309E-016,0.));
#407=DIRECTION('ref_axis',(-5.51089392750126E-016,1.,0.));
#408=DIRECTION('center_axis',(1.,5.51091059616309E-016,0.));
#409=DIRECTION('ref_axis',(0.,0.,-1.));
#410=CARTESIAN_POINT('',(0.,0.,0.));
#411=CARTESIAN_POINT('Origin',(0.0300000000000002,1.65327317884893E-017,
0.));
#412=CARTESIAN_POINT('',(0.0299999999999997,0.935,0.));
#413=CARTESIAN_POINT('Origin',(0.0300000000000002,1.65327317884893E-017,
0.));
#414=CARTESIAN_POINT('',(-3.56964600935225E-016,0.965,-2.36356832235439E-016));
#415=CARTESIAN_POINT('Origin',(1.74838271594513E-016,7.52174214500842E-032,
0.));
#416=CARTESIAN_POINT('Origin',(0.28125,1.54994360517087E-016,0.));
#417=CARTESIAN_POINT('',(0.560616823798457,0.935,-2.29008951440555E-016));
#418=CARTESIAN_POINT('Origin',(0.560616823798458,3.08950919465821E-016,
0.));
#419=CARTESIAN_POINT('Origin',(-3.69177875037791E-016,0.993286970009403,
0.));
#420=CARTESIAN_POINT('',(-3.94647692976402E-016,1.03833622879489,0.));
#421=CARTESIAN_POINT('Origin',(1.77570119588177E-016,9.70547373549473E-032,
0.));
#422=CARTESIAN_POINT('Origin',(0.560616823798458,3.08950919465821E-016,
0.));
#423=CARTESIAN_POINT('',(0.564324733730211,0.935465509849396,0.));
#424=CARTESIAN_POINT('Origin',(0.564324733730212,4.37095678986282E-016,
-1.14561484234981E-016));
#425=CARTESIAN_POINT('Origin',(0.84375,4.64983081551261E-016,0.));
#426=CARTESIAN_POINT('',(1.12123596997725,1.07753975411864,-2.63921122167084E-016));
#427=CARTESIAN_POINT('Origin',(1.12123596997725,6.99353086378051E-016,-1.31960561083542E-016));
#428=CARTESIAN_POINT('Origin',(1.12,6.17221986770266E-016,0.));
#429=CARTESIAN_POINT('',(1.12,1.1875,0.));
#430=CARTESIAN_POINT('Origin',(1.12,6.17221986770266E-016,0.));
#431=CARTESIAN_POINT('',(1.125,1.1825,-2.89628967998349E-016));
#432=CARTESIAN_POINT('Origin',(1.125,6.19977442068347E-016,0.));
#433=CARTESIAN_POINT('Origin',(1.125,1.133,0.));
#434=CARTESIAN_POINT('',(1.125,1.08238458416884,0.));
#435=CARTESIAN_POINT('Origin',(1.125,6.19977442068347E-016,0.));
#436=CARTESIAN_POINT('Origin',(0.818731588975563,4.51195658909887E-016,
0.));
#437=CARTESIAN_POINT('',(0.53731599169351,1.1875,-2.90853614797496E-016));
#438=CARTESIAN_POINT('Origin',(0.537315991693511,2.96110039211165E-016,
0.));
#439=CARTESIAN_POINT('Origin',(1.12,6.17221986770266E-016,0.));
#440=CARTESIAN_POINT('Origin',(0.202472517170562,1.11580794030706E-016,
0.));
#441=CARTESIAN_POINT('',(0.160186349235195,1.12560909355035,1.94109474709895E-032));
#442=CARTESIAN_POINT('Origin',(0.160186349235196,1.74838271594513E-016,
-1.37847357350758E-016));
#443=CARTESIAN_POINT('',(0.202472517170561,1.096,-2.684425783731E-016));
#444=CARTESIAN_POINT('Origin',(0.202472517170562,1.11580794030706E-016,
0.));
#445=CARTESIAN_POINT('Origin',(0.295963177951125,1.63102661344496E-016,
0.));
#446=CARTESIAN_POINT('',(0.396110364208739,1.096,0.));
#447=CARTESIAN_POINT('Origin',(0.396110364208739,2.18292880336796E-016,
0.));
#448=CARTESIAN_POINT('Origin',(0.141481588975563,7.79692387847419E-017,
0.));
#449=CARTESIAN_POINT('',(0.115592276238643,1.24813030214989,-3.05703755889335E-016));
#450=CARTESIAN_POINT('Origin',(0.115592276238643,0.,-1.52851877944668E-016));
#451=CARTESIAN_POINT('Origin',(0.537315991693511,2.96110039211165E-016,
0.));
#452=CARTESIAN_POINT('',(0.494889584822318,1.16992640687119,3.88218949419789E-032));
#453=CARTESIAN_POINT('Origin',(0.494889584822318,2.62257407391769E-016,
-1.43274662941277E-016));
#454=CARTESIAN_POINT('Origin',(0.466713177951125,2.5720145977398E-016,0.));
#455=CARTESIAN_POINT('',(0.438536771079931,1.11357359312881,-2.72746867288042E-016));
#456=CARTESIAN_POINT('Origin',(0.438536771079932,1.74838271594513E-016,
-1.36373433644021E-016));
#457=CARTESIAN_POINT('Origin',(0.396110364208739,2.18292880336796E-016,
0.));
#458=CARTESIAN_POINT('Origin',(0.101496886926855,5.5934026964277E-017,0.));
#459=CARTESIAN_POINT('',(0.101496886926854,1.258,0.));
#460=CARTESIAN_POINT('Origin',(0.101496886926855,5.5934026964277E-017,0.));
#461=CARTESIAN_POINT('Origin',(0.0560000000000003,3.08610993385134E-017,
0.));
#462=CARTESIAN_POINT('',(-3.93386111087654E-016,1.258,0.));
#463=CARTESIAN_POINT('Origin',(2.99884344992004E-016,1.65258437550865E-031,
0.));
#464=CARTESIAN_POINT('Origin',(0.0200000000000003,1.10218211923263E-017,
0.));
#465=CARTESIAN_POINT('',(0.012185377430214,1.16125367413606,-3.88218949419789E-032));
#466=CARTESIAN_POINT('Origin',(0.0121853774302146,0.,-1.42212559502883E-016));
#467=CARTESIAN_POINT('',(-3.82381054285295E-016,1.17966377120511,-2.88934292295286E-016));
#468=CARTESIAN_POINT('Origin',(2.67721103379098E-016,1.48008474466295E-031,
0.));
#469=CARTESIAN_POINT('Origin',(0.0166821815194981,9.19340109029181E-018,
0.));
#470=CARTESIAN_POINT('',(0.0333643630389953,1.15226372811226,0.));
#471=CARTESIAN_POINT('Origin',(0.033364363038996,1.83868021805835E-017,
0.));
#472=CARTESIAN_POINT('Origin',(-4.01581655068647E-016,1.2122130299906,0.));
#473=CARTESIAN_POINT('Origin',(0.0200000000000002,1.10218211923263E-017,
0.));
#474=CARTESIAN_POINT('',(0.012185377430214,1.05674632586394,-2.58828201096E-016));
#475=CARTESIAN_POINT('Origin',(0.0121853774302146,0.,-1.29414100548E-016));
#476=CARTESIAN_POINT('Origin',(0.0166821815194981,9.19340109029179E-018,
0.));
#477=CARTESIAN_POINT('',(0.0333643630389954,1.06573627188774,0.));
#478=CARTESIAN_POINT('Origin',(0.0333643630389959,1.83868021805835E-017,
0.));
#479=CARTESIAN_POINT('Origin',(0.0150000000000002,0.,0.));
#480=UNCERTAINTY_MEASURE_WITH_UNIT(LENGTH_MEASURE(0.000393700787401575),
#484,'DISTANCE_ACCURACY_VALUE',
'Maximum model space distance between geometric entities at asserted c
onnectivities');
#481=UNCERTAINTY_MEASURE_WITH_UNIT(LENGTH_MEASURE(1.E-006),#485,
'DISTANCE_ACCURACY_VALUE',
'Maximum model space distance between geometric entities at asserted c
onnectivities');
#482=(
GEOMETRIC_REPRESENTATION_CONTEXT(3)
GLOBAL_UNCERTAINTY_ASSIGNED_CONTEXT((#480))
GLOBAL_UNIT_ASSIGNED_CONTEXT((#484,#490,#487))
REPRESENTATION_CONTEXT('','3D')
);
#483=(
GEOMETRIC_REPRESENTATION_CONTEXT(3)
GLOBAL_UNCERTAINTY_ASSIGNED_CONTEXT((#481))
GLOBAL_UNIT_ASSIGNED_CONTEXT((#485,#490,#487))
REPRESENTATION_CONTEXT('','3D')
);
#484=(
CONVERSION_BASED_UNIT('__CONSTANT UNIT inch',#486)
LENGTH_UNIT()
NAMED_UNIT(#489)
);
#485=(
LENGTH_UNIT()
NAMED_UNIT(*)
SI_UNIT(.MILLI.,.METRE.)
);
#486=LENGTH_MEASURE_WITH_UNIT(LENGTH_MEASURE(25.4),#485);
#487=(
NAMED_UNIT(*)
SI_UNIT($,.STERADIAN.)
SOLID_ANGLE_UNIT()
);
#488=DIMENSIONAL_EXPONENTS(0.,0.,0.,0.,0.,0.,0.);
#489=DIMENSIONAL_EXPONENTS(1.,0.,0.,0.,0.,0.,0.);
#490=(
CONVERSION_BASED_UNIT('degree',#492)
NAMED_UNIT(#488)
PLANE_ANGLE_UNIT()
);
#491=(
NAMED_UNIT(*)
PLANE_ANGLE_UNIT()
SI_UNIT($,.RADIAN.)
);
#492=PLANE_ANGLE_MEASURE_WITH_UNIT(PLANE_ANGLE_MEASURE(0.01745329252),#491);
#493=SHAPE_DEFINITION_REPRESENTATION(#494,#495);
#494=PRODUCT_DEFINITION_SHAPE('',$,#497);
#495=SHAPE_REPRESENTATION('',(#269),#482);
#496=PRODUCT_DEFINITION_CONTEXT('part definition',#501,'design');
#497=PRODUCT_DEFINITION('19MPX-2','19MPX-2',#498,#496);
#498=PRODUCT_DEFINITION_FORMATION('',$,#503);
#499=PRODUCT_RELATED_PRODUCT_CATEGORY('19MPX-2','19MPX-2',(#503));
#500=APPLICATION_PROTOCOL_DEFINITION('international standard',
'automotive_design',2009,#501);
#501=APPLICATION_CONTEXT(
'Core Data for Automotive Mechanical Design Process');
#502=PRODUCT_CONTEXT('part definition',#501,'mechanical');
#503=PRODUCT('19MPX-2','19MPX-2',$,(#502));
#504=PRESENTATION_STYLE_ASSIGNMENT((#505));
#505=SURFACE_STYLE_USAGE(.BOTH.,#506);
#506=SURFACE_SIDE_STYLE($,(#507));
#507=SURFACE_STYLE_FILL_AREA(#508);
#508=FILL_AREA_STYLE($,(#509));
#509=FILL_AREA_STYLE_COLOUR($,#510);
#510=COLOUR_RGB('',0.749019607843137,0.749019607843137,0.749019607843137);
ENDSEC;
END-ISO-10303-21;
