ISO-10303-21;
HEADER;
/* Generated by software containing ST-Developer
 * from STEP Tools, Inc. (www.steptools.com) 
 */

FILE_DESCRIPTION(
/* description */ (''),
/* implementation_level */ '2;1');

FILE_NAME(
/* name */ 
'W:\\AUTOCAD\\AutoCad - Projects\\Numbered\\19MPX\\STEP FILES\\19MPX-4.
stp',
/* time_stamp */ '2020-09-02T06:49:01-04:00',
/* author */ ('ken'),
/* organization */ (''),
/* preprocessor_version */ 'ST-DEVELOPER v15.2',
/* originating_system */ 'Autodesk Inventor 2014',
/* authorisation */ '');

FILE_SCHEMA (('AUTOMOTIVE_DESIGN { 1 0 10303 214 3 1 1 }'));
ENDSEC;

DATA;
#10=MECHANICAL_DESIGN_GEOMETRIC_PRESENTATION_REPRESENTATION('',(#13),#443);
#11=SHAPE_REPRESENTATION_RELATIONSHIP('SRR','None',#455,#12);
#12=ADVANCED_BREP_SHAPE_REPRESENTATION($,(#246),#442);
#13=STYLED_ITEM('',(#464),#246);
#14=PLANE('',#265);
#15=PLANE('',#273);
#16=PLANE('',#281);
#17=CONICAL_SURFACE('',#253,2.2345,70.);
#18=CONICAL_SURFACE('',#258,2.0235,20.7071881877623);
#19=CONICAL_SURFACE('',#274,2.12165510595327,23.0000000000004);
#20=CONICAL_SURFACE('',#279,2.22234489404673,23.0000000000004);
#21=CONICAL_SURFACE('',#285,2.189,45.);
#22=CYLINDRICAL_SURFACE('',#251,2.128);
#23=CYLINDRICAL_SURFACE('',#260,1.917);
#24=CYLINDRICAL_SURFACE('',#267,2.25);
#25=CYLINDRICAL_SURFACE('',#289,2.341);
#26=FACE_BOUND('',#69,.T.);
#27=FACE_BOUND('',#71,.T.);
#28=FACE_BOUND('',#73,.T.);
#29=FACE_BOUND('',#75,.T.);
#30=FACE_BOUND('',#77,.T.);
#31=FACE_BOUND('',#79,.T.);
#32=FACE_BOUND('',#81,.T.);
#33=FACE_BOUND('',#82,.T.);
#34=FACE_BOUND('',#83,.T.);
#35=FACE_BOUND('',#85,.T.);
#36=FACE_BOUND('',#87,.T.);
#37=FACE_BOUND('',#89,.T.);
#38=FACE_BOUND('',#90,.T.);
#39=FACE_BOUND('',#91,.T.);
#40=FACE_BOUND('',#93,.T.);
#41=FACE_BOUND('',#95,.T.);
#42=FACE_BOUND('',#97,.T.);
#43=FACE_BOUND('',#99,.T.);
#44=FACE_BOUND('',#101,.T.);
#45=FACE_BOUND('',#103,.T.);
#46=FACE_BOUND('',#105,.T.);
#47=FACE_BOUND('',#107,.T.);
#48=FACE_BOUND('',#109,.T.);
#49=FACE_OUTER_BOUND('',#68,.T.);
#50=FACE_OUTER_BOUND('',#70,.T.);
#51=FACE_OUTER_BOUND('',#72,.T.);
#52=FACE_OUTER_BOUND('',#74,.T.);
#53=FACE_OUTER_BOUND('',#76,.T.);
#54=FACE_OUTER_BOUND('',#78,.T.);
#55=FACE_OUTER_BOUND('',#80,.T.);
#56=FACE_OUTER_BOUND('',#84,.T.);
#57=FACE_OUTER_BOUND('',#86,.T.);
#58=FACE_OUTER_BOUND('',#88,.T.);
#59=FACE_OUTER_BOUND('',#92,.T.);
#60=FACE_OUTER_BOUND('',#94,.T.);
#61=FACE_OUTER_BOUND('',#96,.T.);
#62=FACE_OUTER_BOUND('',#98,.T.);
#63=FACE_OUTER_BOUND('',#100,.T.);
#64=FACE_OUTER_BOUND('',#102,.T.);
#65=FACE_OUTER_BOUND('',#104,.T.);
#66=FACE_OUTER_BOUND('',#106,.T.);
#67=FACE_OUTER_BOUND('',#108,.T.);
#68=EDGE_LOOP('',(#173));
#69=EDGE_LOOP('',(#174));
#70=EDGE_LOOP('',(#175));
#71=EDGE_LOOP('',(#176));
#72=EDGE_LOOP('',(#177));
#73=EDGE_LOOP('',(#178));
#74=EDGE_LOOP('',(#179));
#75=EDGE_LOOP('',(#180));
#76=EDGE_LOOP('',(#181));
#77=EDGE_LOOP('',(#182));
#78=EDGE_LOOP('',(#183));
#79=EDGE_LOOP('',(#184));
#80=EDGE_LOOP('',(#185));
#81=EDGE_LOOP('',(#186));
#82=EDGE_LOOP('',(#187));
#83=EDGE_LOOP('',(#188));
#84=EDGE_LOOP('',(#189));
#85=EDGE_LOOP('',(#190));
#86=EDGE_LOOP('',(#191));
#87=EDGE_LOOP('',(#192));
#88=EDGE_LOOP('',(#193));
#89=EDGE_LOOP('',(#194));
#90=EDGE_LOOP('',(#195));
#91=EDGE_LOOP('',(#196));
#92=EDGE_LOOP('',(#197));
#93=EDGE_LOOP('',(#198));
#94=EDGE_LOOP('',(#199));
#95=EDGE_LOOP('',(#200));
#96=EDGE_LOOP('',(#201));
#97=EDGE_LOOP('',(#202));
#98=EDGE_LOOP('',(#203));
#99=EDGE_LOOP('',(#204));
#100=EDGE_LOOP('',(#205));
#101=EDGE_LOOP('',(#206));
#102=EDGE_LOOP('',(#207));
#103=EDGE_LOOP('',(#208));
#104=EDGE_LOOP('',(#209));
#105=EDGE_LOOP('',(#210));
#106=EDGE_LOOP('',(#211));
#107=EDGE_LOOP('',(#212));
#108=EDGE_LOOP('',(#213));
#109=EDGE_LOOP('',(#214));
#110=CIRCLE('',#249,2.15760909355034);
#111=CIRCLE('',#250,2.128);
#112=CIRCLE('',#252,2.128);
#113=CIRCLE('',#254,2.341);
#114=CIRCLE('',#256,1.93315008065436);
#115=CIRCLE('',#257,1.917);
#116=CIRCLE('',#259,2.12877825082966);
#117=CIRCLE('',#261,1.917);
#118=CIRCLE('',#263,2.25);
#119=CIRCLE('',#264,2.245);
#120=CIRCLE('',#266,2.13345524921658);
#121=CIRCLE('',#268,2.25);
#122=CIRCLE('',#271,2.10464565660087);
#123=CIRCLE('',#272,2.11845322940266);
#124=CIRCLE('',#275,2.12873627188774);
#125=CIRCLE('',#277,2.22554677059734);
#126=CIRCLE('',#278,2.23935434339913);
#127=CIRCLE('',#280,2.21526372811226);
#128=CIRCLE('',#282,2.341);
#129=CIRCLE('',#284,2.23242640687119);
#130=CIRCLE('',#286,2.14557359312881);
#131=VERTEX_POINT('',#378);
#132=VERTEX_POINT('',#380);
#133=VERTEX_POINT('',#383);
#134=VERTEX_POINT('',#386);
#135=VERTEX_POINT('',#389);
#136=VERTEX_POINT('',#391);
#137=VERTEX_POINT('',#394);
#138=VERTEX_POINT('',#397);
#139=VERTEX_POINT('',#400);
#140=VERTEX_POINT('',#402);
#141=VERTEX_POINT('',#405);
#142=VERTEX_POINT('',#408);
#143=VERTEX_POINT('',#412);
#144=VERTEX_POINT('',#414);
#145=VERTEX_POINT('',#418);
#146=VERTEX_POINT('',#421);
#147=VERTEX_POINT('',#423);
#148=VERTEX_POINT('',#426);
#149=VERTEX_POINT('',#429);
#150=VERTEX_POINT('',#432);
#151=VERTEX_POINT('',#435);
#152=EDGE_CURVE('',#131,#131,#110,.T.);
#153=EDGE_CURVE('',#132,#132,#111,.T.);
#154=EDGE_CURVE('',#133,#133,#112,.T.);
#155=EDGE_CURVE('',#134,#134,#113,.T.);
#156=EDGE_CURVE('',#135,#135,#114,.T.);
#157=EDGE_CURVE('',#136,#136,#115,.T.);
#158=EDGE_CURVE('',#137,#137,#116,.T.);
#159=EDGE_CURVE('',#138,#138,#117,.T.);
#160=EDGE_CURVE('',#139,#139,#118,.T.);
#161=EDGE_CURVE('',#140,#140,#119,.T.);
#162=EDGE_CURVE('',#141,#141,#120,.T.);
#163=EDGE_CURVE('',#142,#142,#121,.T.);
#164=EDGE_CURVE('',#143,#143,#122,.T.);
#165=EDGE_CURVE('',#144,#144,#123,.T.);
#166=EDGE_CURVE('',#145,#145,#124,.T.);
#167=EDGE_CURVE('',#146,#146,#125,.T.);
#168=EDGE_CURVE('',#147,#147,#126,.T.);
#169=EDGE_CURVE('',#148,#148,#127,.T.);
#170=EDGE_CURVE('',#149,#149,#128,.T.);
#171=EDGE_CURVE('',#150,#150,#129,.T.);
#172=EDGE_CURVE('',#151,#151,#130,.T.);
#173=ORIENTED_EDGE('',*,*,#152,.T.);
#174=ORIENTED_EDGE('',*,*,#153,.T.);
#175=ORIENTED_EDGE('',*,*,#154,.F.);
#176=ORIENTED_EDGE('',*,*,#153,.F.);
#177=ORIENTED_EDGE('',*,*,#155,.T.);
#178=ORIENTED_EDGE('',*,*,#152,.F.);
#179=ORIENTED_EDGE('',*,*,#156,.T.);
#180=ORIENTED_EDGE('',*,*,#157,.T.);
#181=ORIENTED_EDGE('',*,*,#158,.F.);
#182=ORIENTED_EDGE('',*,*,#156,.F.);
#183=ORIENTED_EDGE('',*,*,#159,.F.);
#184=ORIENTED_EDGE('',*,*,#157,.F.);
#185=ORIENTED_EDGE('',*,*,#160,.T.);
#186=ORIENTED_EDGE('',*,*,#161,.T.);
#187=ORIENTED_EDGE('',*,*,#162,.F.);
#188=ORIENTED_EDGE('',*,*,#161,.F.);
#189=ORIENTED_EDGE('',*,*,#163,.F.);
#190=ORIENTED_EDGE('',*,*,#160,.F.);
#191=ORIENTED_EDGE('',*,*,#162,.T.);
#192=ORIENTED_EDGE('',*,*,#158,.T.);
#193=ORIENTED_EDGE('',*,*,#164,.T.);
#194=ORIENTED_EDGE('',*,*,#165,.T.);
#195=ORIENTED_EDGE('',*,*,#159,.T.);
#196=ORIENTED_EDGE('',*,*,#164,.F.);
#197=ORIENTED_EDGE('',*,*,#166,.F.);
#198=ORIENTED_EDGE('',*,*,#165,.F.);
#199=ORIENTED_EDGE('',*,*,#167,.T.);
#200=ORIENTED_EDGE('',*,*,#168,.T.);
#201=ORIENTED_EDGE('',*,*,#169,.T.);
#202=ORIENTED_EDGE('',*,*,#167,.F.);
#203=ORIENTED_EDGE('',*,*,#170,.F.);
#204=ORIENTED_EDGE('',*,*,#168,.F.);
#205=ORIENTED_EDGE('',*,*,#171,.T.);
#206=ORIENTED_EDGE('',*,*,#163,.T.);
#207=ORIENTED_EDGE('',*,*,#172,.F.);
#208=ORIENTED_EDGE('',*,*,#171,.F.);
#209=ORIENTED_EDGE('',*,*,#154,.T.);
#210=ORIENTED_EDGE('',*,*,#172,.T.);
#211=ORIENTED_EDGE('',*,*,#169,.F.);
#212=ORIENTED_EDGE('',*,*,#166,.T.);
#213=ORIENTED_EDGE('',*,*,#155,.F.);
#214=ORIENTED_EDGE('',*,*,#170,.T.);
#215=TOROIDAL_SURFACE('',#248,2.173,0.045);
#216=TOROIDAL_SURFACE('',#255,2.167,0.25);
#217=TOROIDAL_SURFACE('',#262,2.245,0.005);
#218=TOROIDAL_SURFACE('',#269,2.13345524921658,0.005);
#219=TOROIDAL_SURFACE('',#270,2.10464565660087,0.015);
#220=TOROIDAL_SURFACE('',#276,2.23935434339913,0.015);
#221=TOROIDAL_SURFACE('',#283,2.19,0.06);
#222=TOROIDAL_SURFACE('',#287,2.188,0.06);
#223=TOROIDAL_SURFACE('',#288,2.172,0.047);
#224=ADVANCED_FACE('',(#49,#26),#215,.F.);
#225=ADVANCED_FACE('',(#50,#27),#22,.T.);
#226=ADVANCED_FACE('',(#51,#28),#17,.T.);
#227=ADVANCED_FACE('',(#52,#29),#216,.T.);
#228=ADVANCED_FACE('',(#53,#30),#18,.F.);
#229=ADVANCED_FACE('',(#54,#31),#23,.F.);
#230=ADVANCED_FACE('',(#55,#32),#217,.T.);
#231=ADVANCED_FACE('',(#33,#34),#14,.T.);
#232=ADVANCED_FACE('',(#56,#35),#24,.T.);
#233=ADVANCED_FACE('',(#57,#36),#218,.T.);
#234=ADVANCED_FACE('',(#58,#37),#219,.T.);
#235=ADVANCED_FACE('',(#38,#39),#15,.T.);
#236=ADVANCED_FACE('',(#59,#40),#19,.T.);
#237=ADVANCED_FACE('',(#60,#41),#220,.T.);
#238=ADVANCED_FACE('',(#61,#42),#20,.F.);
#239=ADVANCED_FACE('',(#62,#43),#16,.T.);
#240=ADVANCED_FACE('',(#63,#44),#221,.T.);
#241=ADVANCED_FACE('',(#64,#45),#21,.T.);
#242=ADVANCED_FACE('',(#65,#46),#222,.F.);
#243=ADVANCED_FACE('',(#66,#47),#223,.F.);
#244=ADVANCED_FACE('',(#67,#48),#25,.T.);
#245=CLOSED_SHELL('',(#224,#225,#226,#227,#228,#229,#230,#231,#232,#233,
#234,#235,#236,#237,#238,#239,#240,#241,#242,#243,#244));
#246=MANIFOLD_SOLID_BREP('Solid1',#245);
#247=AXIS2_PLACEMENT_3D('placement',#376,#290,#291);
#248=AXIS2_PLACEMENT_3D('',#377,#292,#293);
#249=AXIS2_PLACEMENT_3D('',#379,#294,#295);
#250=AXIS2_PLACEMENT_3D('',#381,#296,#297);
#251=AXIS2_PLACEMENT_3D('',#382,#298,#299);
#252=AXIS2_PLACEMENT_3D('',#384,#300,#301);
#253=AXIS2_PLACEMENT_3D('',#385,#302,#303);
#254=AXIS2_PLACEMENT_3D('',#387,#304,#305);
#255=AXIS2_PLACEMENT_3D('',#388,#306,#307);
#256=AXIS2_PLACEMENT_3D('',#390,#308,#309);
#257=AXIS2_PLACEMENT_3D('',#392,#310,#311);
#258=AXIS2_PLACEMENT_3D('',#393,#312,#313);
#259=AXIS2_PLACEMENT_3D('',#395,#314,#315);
#260=AXIS2_PLACEMENT_3D('',#396,#316,#317);
#261=AXIS2_PLACEMENT_3D('',#398,#318,#319);
#262=AXIS2_PLACEMENT_3D('',#399,#320,#321);
#263=AXIS2_PLACEMENT_3D('',#401,#322,#323);
#264=AXIS2_PLACEMENT_3D('',#403,#324,#325);
#265=AXIS2_PLACEMENT_3D('',#404,#326,#327);
#266=AXIS2_PLACEMENT_3D('',#406,#328,#329);
#267=AXIS2_PLACEMENT_3D('',#407,#330,#331);
#268=AXIS2_PLACEMENT_3D('',#409,#332,#333);
#269=AXIS2_PLACEMENT_3D('',#410,#334,#335);
#270=AXIS2_PLACEMENT_3D('',#411,#336,#337);
#271=AXIS2_PLACEMENT_3D('',#413,#338,#339);
#272=AXIS2_PLACEMENT_3D('',#415,#340,#341);
#273=AXIS2_PLACEMENT_3D('',#416,#342,#343);
#274=AXIS2_PLACEMENT_3D('',#417,#344,#345);
#275=AXIS2_PLACEMENT_3D('',#419,#346,#347);
#276=AXIS2_PLACEMENT_3D('',#420,#348,#349);
#277=AXIS2_PLACEMENT_3D('',#422,#350,#351);
#278=AXIS2_PLACEMENT_3D('',#424,#352,#353);
#279=AXIS2_PLACEMENT_3D('',#425,#354,#355);
#280=AXIS2_PLACEMENT_3D('',#427,#356,#357);
#281=AXIS2_PLACEMENT_3D('',#428,#358,#359);
#282=AXIS2_PLACEMENT_3D('',#430,#360,#361);
#283=AXIS2_PLACEMENT_3D('',#431,#362,#363);
#284=AXIS2_PLACEMENT_3D('',#433,#364,#365);
#285=AXIS2_PLACEMENT_3D('',#434,#366,#367);
#286=AXIS2_PLACEMENT_3D('',#436,#368,#369);
#287=AXIS2_PLACEMENT_3D('',#437,#370,#371);
#288=AXIS2_PLACEMENT_3D('',#438,#372,#373);
#289=AXIS2_PLACEMENT_3D('',#439,#374,#375);
#290=DIRECTION('axis',(0.,0.,1.));
#291=DIRECTION('refdir',(1.,0.,0.));
#292=DIRECTION('center_axis',(1.,6.4029167005E-034,0.));
#293=DIRECTION('ref_axis',(0.,0.,-1.));
#294=DIRECTION('center_axis',(1.,0.,0.));
#295=DIRECTION('ref_axis',(0.,-1.,0.));
#296=DIRECTION('center_axis',(-1.,-6.4029167005E-034,0.));
#297=DIRECTION('ref_axis',(0.,-1.,1.22464679914735E-016));
#298=DIRECTION('center_axis',(1.,6.4029167005E-034,0.));
#299=DIRECTION('ref_axis',(0.,1.,0.));
#300=DIRECTION('center_axis',(1.,6.4029167005E-034,0.));
#301=DIRECTION('ref_axis',(0.,-1.,1.22464679914735E-016));
#302=DIRECTION('center_axis',(-1.,-6.4029167005E-034,0.));
#303=DIRECTION('ref_axis',(0.,1.,0.));
#304=DIRECTION('center_axis',(1.,6.4029167005E-034,0.));
#305=DIRECTION('ref_axis',(0.,1.,0.));
#306=DIRECTION('center_axis',(1.,6.4029167005E-034,0.));
#307=DIRECTION('ref_axis',(0.,0.,-1.));
#308=DIRECTION('center_axis',(1.,0.,0.));
#309=DIRECTION('ref_axis',(0.,-1.,0.));
#310=DIRECTION('center_axis',(-1.,-6.4029167005E-034,0.));
#311=DIRECTION('ref_axis',(0.,-1.,1.22464679914735E-016));
#312=DIRECTION('center_axis',(1.,6.4029167005E-034,0.));
#313=DIRECTION('ref_axis',(0.,1.,0.));
#314=DIRECTION('center_axis',(-1.,0.,0.));
#315=DIRECTION('ref_axis',(0.,-1.,-1.82367021679447E-032));
#316=DIRECTION('center_axis',(1.,6.4029167005E-034,0.));
#317=DIRECTION('ref_axis',(0.,1.,0.));
#318=DIRECTION('center_axis',(1.,6.4029167005E-034,0.));
#319=DIRECTION('ref_axis',(0.,1.,0.));
#320=DIRECTION('center_axis',(1.,6.4029167005E-034,0.));
#321=DIRECTION('ref_axis',(0.,0.,-1.));
#322=DIRECTION('center_axis',(1.,6.4029167005E-034,0.));
#323=DIRECTION('ref_axis',(0.,-1.,1.22464679914735E-016));
#324=DIRECTION('center_axis',(-1.,-6.4029167005E-034,0.));
#325=DIRECTION('ref_axis',(6.4029167005E-034,-1.,1.22464679914735E-016));
#326=DIRECTION('center_axis',(1.,6.4029167005E-034,0.));
#327=DIRECTION('ref_axis',(0.,0.,-1.));
#328=DIRECTION('center_axis',(1.,6.4029167005E-034,0.));
#329=DIRECTION('ref_axis',(6.4029167005E-034,-1.,1.22464679914735E-016));
#330=DIRECTION('center_axis',(1.,6.4029167005E-034,0.));
#331=DIRECTION('ref_axis',(0.,1.,0.));
#332=DIRECTION('center_axis',(-1.,-6.4029167005E-034,0.));
#333=DIRECTION('ref_axis',(0.,-1.,1.22464679914735E-016));
#334=DIRECTION('center_axis',(1.,6.4029167005E-034,0.));
#335=DIRECTION('ref_axis',(0.,0.,-1.));
#336=DIRECTION('center_axis',(1.,6.4029167005E-034,0.));
#337=DIRECTION('ref_axis',(0.,0.,-1.));
#338=DIRECTION('center_axis',(1.,6.4029167005E-034,0.));
#339=DIRECTION('ref_axis',(6.4029167005E-034,-1.,1.22464679914735E-016));
#340=DIRECTION('center_axis',(-1.,0.,0.));
#341=DIRECTION('ref_axis',(0.,-1.,0.));
#342=DIRECTION('center_axis',(-1.,-6.4029167005E-034,0.));
#343=DIRECTION('ref_axis',(0.,0.,1.));
#344=DIRECTION('center_axis',(1.,6.4029167005E-034,0.));
#345=DIRECTION('ref_axis',(0.,1.,0.));
#346=DIRECTION('center_axis',(1.,6.4029167005E-034,0.));
#347=DIRECTION('ref_axis',(0.,1.,0.));
#348=DIRECTION('center_axis',(1.,6.4029167005E-034,0.));
#349=DIRECTION('ref_axis',(0.,0.,-1.));
#350=DIRECTION('center_axis',(1.,0.,0.));
#351=DIRECTION('ref_axis',(0.,-1.,0.));
#352=DIRECTION('center_axis',(-1.,-6.4029167005E-034,0.));
#353=DIRECTION('ref_axis',(6.4029167005E-034,-1.,1.22464679914735E-016));
#354=DIRECTION('center_axis',(-1.,-6.4029167005E-034,0.));
#355=DIRECTION('ref_axis',(0.,1.,0.));
#356=DIRECTION('center_axis',(1.,6.4029167005E-034,0.));
#357=DIRECTION('ref_axis',(0.,1.,0.));
#358=DIRECTION('center_axis',(-1.,-6.4029167005E-034,0.));
#359=DIRECTION('ref_axis',(0.,0.,1.));
#360=DIRECTION('center_axis',(1.,6.4029167005E-034,0.));
#361=DIRECTION('ref_axis',(0.,1.,0.));
#362=DIRECTION('center_axis',(1.,6.4029167005E-034,0.));
#363=DIRECTION('ref_axis',(0.,0.,-1.));
#364=DIRECTION('center_axis',(1.,0.,0.));
#365=DIRECTION('ref_axis',(0.,-1.,0.));
#366=DIRECTION('center_axis',(1.,6.4029167005E-034,0.));
#367=DIRECTION('ref_axis',(0.,1.,0.));
#368=DIRECTION('center_axis',(-1.,0.,0.));
#369=DIRECTION('ref_axis',(0.,-1.,0.));
#370=DIRECTION('center_axis',(1.,6.4029167005E-034,0.));
#371=DIRECTION('ref_axis',(0.,0.,-1.));
#372=DIRECTION('center_axis',(1.,6.4029167005E-034,0.));
#373=DIRECTION('ref_axis',(0.,0.,-1.));
#374=DIRECTION('center_axis',(1.,6.4029167005E-034,0.));
#375=DIRECTION('ref_axis',(0.,1.,0.));
#376=CARTESIAN_POINT('',(0.,0.,0.));
#377=CARTESIAN_POINT('Origin',(0.221034999118137,1.41526868724852E-034,
0.));
#378=CARTESIAN_POINT('',(0.178748831182771,2.15760909355034,0.));
#379=CARTESIAN_POINT('Origin',(0.178748831182771,0.,-2.64230907022765E-016));
#380=CARTESIAN_POINT('',(0.221034999118137,2.128,-5.21209677717114E-016));
#381=CARTESIAN_POINT('Origin',(0.221034999118137,1.41526868724852E-034,
0.));
#382=CARTESIAN_POINT('Origin',(0.3145256598987,2.01388160050117E-034,0.));
#383=CARTESIAN_POINT('',(0.414672846156314,2.128,0.));
#384=CARTESIAN_POINT('Origin',(0.414672846156314,2.65511569189813E-034,
0.));
#385=CARTESIAN_POINT('Origin',(0.15076282994935,9.65321841697332E-035,0.));
#386=CARTESIAN_POINT('',(0.111999999999999,2.341,0.));
#387=CARTESIAN_POINT('Origin',(0.111999999999999,7.17126670455994E-035,
0.));
#388=CARTESIAN_POINT('Origin',(0.515851347295507,3.30295320657383E-034,
0.));
#389=CARTESIAN_POINT('',(0.604249397172395,1.93315008065436,0.));
#390=CARTESIAN_POINT('Origin',(0.604249397172395,0.,-2.36742605854481E-016));
#391=CARTESIAN_POINT('',(0.515851347295507,1.917,-4.69529582793095E-016));
#392=CARTESIAN_POINT('Origin',(0.515851347295507,3.30295320657383E-034,
0.));
#393=CARTESIAN_POINT('Origin',(0.843262829949349,5.39934165679358E-034,
0.));
#394=CARTESIAN_POINT('',(1.12176796099754,2.12877825082966,-5.2140029419461E-016));
#395=CARTESIAN_POINT('Origin',(1.12176796099754,0.,-2.60700147097305E-016));
#396=CARTESIAN_POINT('Origin',(0.280762829949349,1.79770101276233E-034,
0.));
#397=CARTESIAN_POINT('',(-8.74191357972564E-016,1.917,0.));
#398=CARTESIAN_POINT('Origin',(-8.74191357972564E-016,-5.59725203159871E-049,
0.));
#399=CARTESIAN_POINT('Origin',(1.12,7.17126670456E-034,0.));
#400=CARTESIAN_POINT('',(1.12,2.25,0.));
#401=CARTESIAN_POINT('Origin',(1.12,7.17126670456E-034,0.));
#402=CARTESIAN_POINT('',(1.125,2.245,-5.49866412817162E-016));
#403=CARTESIAN_POINT('Origin',(1.125,7.2032812880625E-034,0.));
#404=CARTESIAN_POINT('Origin',(1.125,2.19,0.));
#405=CARTESIAN_POINT('',(1.125,2.13345524921658,0.));
#406=CARTESIAN_POINT('Origin',(1.125,7.2032812880625E-034,0.));
#407=CARTESIAN_POINT('Origin',(0.843262829949349,5.39934165679358E-034,
0.));
#408=CARTESIAN_POINT('',(0.586378473641086,2.25,-5.51091059616309E-016));
#409=CARTESIAN_POINT('Origin',(0.586378473641086,3.75453252169021E-034,
0.));
#410=CARTESIAN_POINT('Origin',(1.12,7.17126670456E-034,0.));
#411=CARTESIAN_POINT('Origin',(0.0149999999999991,9.60437505074945E-036,
0.));
#412=CARTESIAN_POINT('',(-8.74191357972564E-016,2.10464565660087,0.));
#413=CARTESIAN_POINT('Origin',(-8.74191357972564E-016,-5.55598333436488E-049,
0.));
#414=CARTESIAN_POINT('',(0.00913903307265989,2.11845322940266,-5.18871393306268E-016));
#415=CARTESIAN_POINT('Origin',(0.00913903307265989,0.,-2.59435696653134E-016));
#416=CARTESIAN_POINT('Origin',(-8.74191357972564E-016,2.0157869700094,0.));
#417=CARTESIAN_POINT('Origin',(0.0166821815194977,1.06814618651964E-035,
0.));
#418=CARTESIAN_POINT('',(0.0333643630389962,2.12873627188774,0.));
#419=CARTESIAN_POINT('Origin',(0.0333643630389962,2.13629237303934E-035,
0.));
#420=CARTESIAN_POINT('Origin',(0.014999999999999,9.60437505074939E-036,
0.));
#421=CARTESIAN_POINT('',(0.00913903307265993,2.22554677059734,0.));
#422=CARTESIAN_POINT('Origin',(0.00913903307265993,0.,-2.72550872896476E-016));
#423=CARTESIAN_POINT('',(-9.61610493769821E-016,2.23935434339913,-5.48483625760093E-016));
#424=CARTESIAN_POINT('Origin',(-9.61610493769821E-016,-6.16629968548829E-049,
0.));
#425=CARTESIAN_POINT('Origin',(0.0166821815194976,1.06814618651964E-035,
0.));
#426=CARTESIAN_POINT('',(0.0333643630389961,2.21526372811226,0.));
#427=CARTESIAN_POINT('Origin',(0.0333643630389961,2.13629237303933E-035,
0.));
#428=CARTESIAN_POINT('Origin',(-9.61610493769821E-016,2.2852130299906,0.));
#429=CARTESIAN_POINT('',(-1.00532006166845E-015,2.341,0.));
#430=CARTESIAN_POINT('Origin',(-1.00532006166845E-015,-6.43693026575476E-049,
0.));
#431=CARTESIAN_POINT('Origin',(0.586378473641086,3.75453252169021E-034,
0.));
#432=CARTESIAN_POINT('',(0.543952066769893,2.23242640687119,0.));
#433=CARTESIAN_POINT('Origin',(0.543952066769893,0.,-2.73393385350683E-016));
#434=CARTESIAN_POINT('Origin',(0.5005256598987,3.20482410679417E-034,0.));
#435=CARTESIAN_POINT('',(0.457099253027507,2.14557359312881,-5.25513966632056E-016));
#436=CARTESIAN_POINT('Origin',(0.457099253027507,0.,-2.62756983316028E-016));
#437=CARTESIAN_POINT('Origin',(0.414672846156314,2.65511569189813E-034,
0.));
#438=CARTESIAN_POINT('Origin',(0.0150000000000004,0.,0.));
#439=CARTESIAN_POINT('Origin',(0.055999999999999,3.58563335227994E-035,
0.));
#440=UNCERTAINTY_MEASURE_WITH_UNIT(LENGTH_MEASURE(0.000393700787401575),
#444,'DISTANCE_ACCURACY_VALUE',
'Maximum model space distance between geometric entities at asserted c
onnectivities');
#441=UNCERTAINTY_MEASURE_WITH_UNIT(LENGTH_MEASURE(1.E-006),#445,
'DISTANCE_ACCURACY_VALUE',
'Maximum model space distance between geometric entities at asserted c
onnectivities');
#442=(
GEOMETRIC_REPRESENTATION_CONTEXT(3)
GLOBAL_UNCERTAINTY_ASSIGNED_CONTEXT((#440))
GLOBAL_UNIT_ASSIGNED_CONTEXT((#444,#450,#447))
REPRESENTATION_CONTEXT('','3D')
);
#443=(
GEOMETRIC_REPRESENTATION_CONTEXT(3)
GLOBAL_UNCERTAINTY_ASSIGNED_CONTEXT((#441))
GLOBAL_UNIT_ASSIGNED_CONTEXT((#445,#450,#447))
REPRESENTATION_CONTEXT('','3D')
);
#444=(
CONVERSION_BASED_UNIT('__CONSTANT UNIT inch',#446)
LENGTH_UNIT()
NAMED_UNIT(#449)
);
#445=(
LENGTH_UNIT()
NAMED_UNIT(*)
SI_UNIT(.MILLI.,.METRE.)
);
#446=LENGTH_MEASURE_WITH_UNIT(LENGTH_MEASURE(25.4),#445);
#447=(
NAMED_UNIT(*)
SI_UNIT($,.STERADIAN.)
SOLID_ANGLE_UNIT()
);
#448=DIMENSIONAL_EXPONENTS(0.,0.,0.,0.,0.,0.,0.);
#449=DIMENSIONAL_EXPONENTS(1.,0.,0.,0.,0.,0.,0.);
#450=(
CONVERSION_BASED_UNIT('degree',#452)
NAMED_UNIT(#448)
PLANE_ANGLE_UNIT()
);
#451=(
NAMED_UNIT(*)
PLANE_ANGLE_UNIT()
SI_UNIT($,.RADIAN.)
);
#452=PLANE_ANGLE_MEASURE_WITH_UNIT(PLANE_ANGLE_MEASURE(0.01745329252),#451);
#453=SHAPE_DEFINITION_REPRESENTATION(#454,#455);
#454=PRODUCT_DEFINITION_SHAPE('',$,#457);
#455=SHAPE_REPRESENTATION('',(#247),#442);
#456=PRODUCT_DEFINITION_CONTEXT('part definition',#461,'design');
#457=PRODUCT_DEFINITION('19MPX-4','19MPX-4',#458,#456);
#458=PRODUCT_DEFINITION_FORMATION('',$,#463);
#459=PRODUCT_RELATED_PRODUCT_CATEGORY('19MPX-4','19MPX-4',(#463));
#460=APPLICATION_PROTOCOL_DEFINITION('international standard',
'automotive_design',2009,#461);
#461=APPLICATION_CONTEXT(
'Core Data for Automotive Mechanical Design Process');
#462=PRODUCT_CONTEXT('part definition',#461,'mechanical');
#463=PRODUCT('19MPX-4','19MPX-4',$,(#462));
#464=PRESENTATION_STYLE_ASSIGNMENT((#465));
#465=SURFACE_STYLE_USAGE(.BOTH.,#466);
#466=SURFACE_SIDE_STYLE($,(#467));
#467=SURFACE_STYLE_FILL_AREA(#468);
#468=FILL_AREA_STYLE($,(#469));
#469=FILL_AREA_STYLE_COLOUR($,#470);
#470=COLOUR_RGB('',0.752941176470588,0.752941176470588,0.752941176470588);
ENDSEC;
END-ISO-10303-21;
