ISO-10303-21;
HEADER;
/* Generated by software containing ST-Developer
 * from STEP Tools, Inc. (www.steptools.com) 
 */

FILE_DESCRIPTION(
/* description */ (''),
/* implementation_level */ '2;1');

FILE_NAME(
/* name */ '19WX-.50.stp',
/* time_stamp */ '2025-08-01T11:12:05-04:00',
/* author */ ('brad'),
/* organization */ (''),
/* preprocessor_version */ 'ST-DEVELOPER v20',
/* originating_system */ 'Autodesk Inventor 2025',
/* authorisation */ '');

FILE_SCHEMA (('AUTOMOTIVE_DESIGN { 1 0 10303 214 3 1 1 }'));
ENDSEC;

DATA;
#10=MECHANICAL_DESIGN_GEOMETRIC_PRESENTATION_REPRESENTATION('',(#13),#463);
#11=SHAPE_REPRESENTATION_RELATIONSHIP('SRR','None',#474,#12);
#12=ADVANCED_BREP_SHAPE_REPRESENTATION('',(#14),#462);
#13=STYLED_ITEM('',(#483),#14);
#14=MANIFOLD_SOLID_BREP('Solid1',#213);
#15=FACE_BOUND('',#62,.T.);
#16=FACE_BOUND('',#64,.T.);
#17=PLANE('',#267);
#18=PLANE('',#268);
#19=(
BOUNDED_SURFACE()
B_SPLINE_SURFACE(2,2,((#366,#367,#368,#369,#370,#371,#372,#373,#374),(#375,
#376,#377,#378,#379,#380,#381,#382,#383),(#384,#385,#386,#387,#388,#389,
#390,#391,#392)),.UNSPECIFIED.,.F.,.T.,.F.)
B_SPLINE_SURFACE_WITH_KNOTS((3,3),(3,2,2,2,3),(-1.13385814494142E-33,0.327738506780556),
(-3.14159265358979,-1.5707963267949,0.,1.5707963267949,3.14159265358979),
 .UNSPECIFIED.)
GEOMETRIC_REPRESENTATION_ITEM()
RATIONAL_B_SPLINE_SURFACE(((1.,0.707106781186548,1.,0.707106781186548,1.,
0.707106781186548,1.,0.707106781186548,1.),(0.986603452461966,0.697633991577916,
0.986603452461966,0.697633991577916,0.986603452461966,0.697633991577916,
0.986603452461966,0.697633991577916,0.986603452461966),(1.,0.707106781186548,
1.,0.707106781186548,1.,0.707106781186548,1.,0.707106781186548,1.)))
REPRESENTATION_ITEM('')
SURFACE()
);
#20=(
BOUNDED_SURFACE()
B_SPLINE_SURFACE(2,2,((#422,#423,#424,#425,#426,#427,#428,#429,#430),(#431,
#432,#433,#434,#435,#436,#437,#438,#439),(#440,#441,#442,#443,#444,#445,
#446,#447,#448)),.UNSPECIFIED.,.F.,.T.,.F.)
B_SPLINE_SURFACE_WITH_KNOTS((3,3),(3,2,2,2,3),(-1.41311697589138E-33,0.327738506780555),
(-3.14159265358979,-1.5707963267949,0.,1.5707963267949,3.14159265358979),
 .UNSPECIFIED.)
GEOMETRIC_REPRESENTATION_ITEM()
RATIONAL_B_SPLINE_SURFACE(((1.,0.707106781186548,1.,0.707106781186548,1.,
0.707106781186548,1.,0.707106781186548,1.),(0.986603452461983,0.697633991577928,
0.986603452461983,0.697633991577928,0.986603452461983,0.697633991577928,
0.986603452461983,0.697633991577928,0.986603452461983),(1.,0.707106781186548,
1.,0.707106781186548,1.,0.707106781186548,1.,0.707106781186548,1.)))
REPRESENTATION_ITEM('')
SURFACE()
);
#21=CYLINDRICAL_SURFACE('',#244,0.185);
#22=CYLINDRICAL_SURFACE('',#249,0.337);
#23=CYLINDRICAL_SURFACE('',#260,0.25);
#24=CYLINDRICAL_SURFACE('',#265,0.42);
#25=LINE('',#358,#31);
#26=LINE('',#365,#32);
#27=LINE('',#400,#33);
#28=LINE('',#414,#34);
#29=LINE('',#421,#35);
#30=LINE('',#456,#36);
#31=VECTOR('',#285,0.261);
#32=VECTOR('',#294,0.185);
#33=VECTOR('',#303,0.337);
#34=VECTOR('',#320,0.335);
#35=VECTOR('',#329,0.25);
#36=VECTOR('',#338,0.42);
#37=CONICAL_SURFACE('',#241,0.261,0.327738506780555);
#38=CONICAL_SURFACE('',#257,0.335,0.327738506780555);
#39=FACE_OUTER_BOUND('',#51,.T.);
#40=FACE_OUTER_BOUND('',#52,.T.);
#41=FACE_OUTER_BOUND('',#53,.T.);
#42=FACE_OUTER_BOUND('',#54,.T.);
#43=FACE_OUTER_BOUND('',#55,.T.);
#44=FACE_OUTER_BOUND('',#56,.T.);
#45=FACE_OUTER_BOUND('',#57,.T.);
#46=FACE_OUTER_BOUND('',#58,.T.);
#47=FACE_OUTER_BOUND('',#59,.T.);
#48=FACE_OUTER_BOUND('',#60,.T.);
#49=FACE_OUTER_BOUND('',#61,.T.);
#50=FACE_OUTER_BOUND('',#63,.T.);
#51=EDGE_LOOP('',(#139,#140,#141,#142,#143,#144));
#52=EDGE_LOOP('',(#145,#146,#147,#148,#149,#150));
#53=EDGE_LOOP('',(#151,#152,#153,#154,#155));
#54=EDGE_LOOP('',(#156,#157,#158,#159,#160,#161));
#55=EDGE_LOOP('',(#162,#163,#164,#165,#166));
#56=EDGE_LOOP('',(#167,#168,#169,#170,#171,#172));
#57=EDGE_LOOP('',(#173,#174,#175,#176,#177,#178));
#58=EDGE_LOOP('',(#179,#180,#181,#182,#183));
#59=EDGE_LOOP('',(#184,#185,#186,#187,#188,#189));
#60=EDGE_LOOP('',(#190,#191,#192,#193,#194));
#61=EDGE_LOOP('',(#195));
#62=EDGE_LOOP('',(#196));
#63=EDGE_LOOP('',(#197));
#64=EDGE_LOOP('',(#198));
#65=CIRCLE('',#236,0.198306813795072);
#66=CIRCLE('',#237,0.198306813795072);
#67=CIRCLE('',#238,0.25);
#68=CIRCLE('',#239,0.185);
#69=CIRCLE('',#240,0.185);
#70=CIRCLE('',#242,0.323693186204928);
#71=CIRCLE('',#243,0.323693186204928);
#72=CIRCLE('',#245,0.185);
#73=CIRCLE('',#246,0.25);
#74=CIRCLE('',#247,0.337);
#75=CIRCLE('',#248,0.337);
#76=CIRCLE('',#250,0.337);
#77=CIRCLE('',#252,0.263306813795072);
#78=CIRCLE('',#253,0.25);
#79=CIRCLE('',#254,0.25);
#80=CIRCLE('',#255,0.25);
#81=CIRCLE('',#256,0.263306813795072);
#82=CIRCLE('',#258,0.406693186204928);
#83=CIRCLE('',#259,0.406693186204928);
#84=CIRCLE('',#261,0.25);
#85=CIRCLE('',#262,0.25);
#86=CIRCLE('',#263,0.42);
#87=CIRCLE('',#264,0.42);
#88=CIRCLE('',#266,0.42);
#89=VERTEX_POINT('',#347);
#90=VERTEX_POINT('',#348);
#91=VERTEX_POINT('',#351);
#92=VERTEX_POINT('',#353);
#93=VERTEX_POINT('',#357);
#94=VERTEX_POINT('',#359);
#95=VERTEX_POINT('',#363);
#96=VERTEX_POINT('',#393);
#97=VERTEX_POINT('',#395);
#98=VERTEX_POINT('',#399);
#99=VERTEX_POINT('',#403);
#100=VERTEX_POINT('',#404);
#101=VERTEX_POINT('',#406);
#102=VERTEX_POINT('',#408);
#103=VERTEX_POINT('',#413);
#104=VERTEX_POINT('',#415);
#105=VERTEX_POINT('',#419);
#106=VERTEX_POINT('',#449);
#107=VERTEX_POINT('',#451);
#108=VERTEX_POINT('',#455);
#109=EDGE_CURVE('',#89,#90,#65,.T.);
#110=EDGE_CURVE('',#90,#89,#66,.T.);
#111=EDGE_CURVE('',#89,#91,#67,.T.);
#112=EDGE_CURVE('',#91,#92,#68,.T.);
#113=EDGE_CURVE('',#92,#91,#69,.T.);
#114=EDGE_CURVE('',#90,#93,#25,.T.);
#115=EDGE_CURVE('',#94,#93,#70,.T.);
#116=EDGE_CURVE('',#93,#94,#71,.T.);
#117=EDGE_CURVE('',#95,#95,#72,.T.);
#118=EDGE_CURVE('',#95,#92,#26,.T.);
#119=EDGE_CURVE('',#94,#96,#73,.T.);
#120=EDGE_CURVE('',#96,#97,#74,.T.);
#121=EDGE_CURVE('',#97,#96,#75,.T.);
#122=EDGE_CURVE('',#97,#98,#27,.T.);
#123=EDGE_CURVE('',#98,#98,#76,.T.);
#124=EDGE_CURVE('',#99,#100,#77,.T.);
#125=EDGE_CURVE('',#100,#101,#78,.T.);
#126=EDGE_CURVE('',#101,#102,#79,.T.);
#127=EDGE_CURVE('',#102,#101,#80,.T.);
#128=EDGE_CURVE('',#100,#99,#81,.T.);
#129=EDGE_CURVE('',#99,#103,#28,.T.);
#130=EDGE_CURVE('',#104,#103,#82,.T.);
#131=EDGE_CURVE('',#103,#104,#83,.T.);
#132=EDGE_CURVE('',#105,#105,#84,.T.);
#133=EDGE_CURVE('',#105,#102,#29,.T.);
#134=EDGE_CURVE('',#104,#106,#85,.T.);
#135=EDGE_CURVE('',#106,#107,#86,.T.);
#136=EDGE_CURVE('',#107,#106,#87,.T.);
#137=EDGE_CURVE('',#107,#108,#30,.T.);
#138=EDGE_CURVE('',#108,#108,#88,.T.);
#139=ORIENTED_EDGE('',*,*,#109,.T.);
#140=ORIENTED_EDGE('',*,*,#110,.T.);
#141=ORIENTED_EDGE('',*,*,#111,.T.);
#142=ORIENTED_EDGE('',*,*,#112,.T.);
#143=ORIENTED_EDGE('',*,*,#113,.T.);
#144=ORIENTED_EDGE('',*,*,#111,.F.);
#145=ORIENTED_EDGE('',*,*,#109,.F.);
#146=ORIENTED_EDGE('',*,*,#110,.F.);
#147=ORIENTED_EDGE('',*,*,#114,.T.);
#148=ORIENTED_EDGE('',*,*,#115,.F.);
#149=ORIENTED_EDGE('',*,*,#116,.F.);
#150=ORIENTED_EDGE('',*,*,#114,.F.);
#151=ORIENTED_EDGE('',*,*,#117,.T.);
#152=ORIENTED_EDGE('',*,*,#118,.T.);
#153=ORIENTED_EDGE('',*,*,#112,.F.);
#154=ORIENTED_EDGE('',*,*,#113,.F.);
#155=ORIENTED_EDGE('',*,*,#118,.F.);
#156=ORIENTED_EDGE('',*,*,#116,.T.);
#157=ORIENTED_EDGE('',*,*,#119,.T.);
#158=ORIENTED_EDGE('',*,*,#120,.T.);
#159=ORIENTED_EDGE('',*,*,#121,.T.);
#160=ORIENTED_EDGE('',*,*,#119,.F.);
#161=ORIENTED_EDGE('',*,*,#115,.T.);
#162=ORIENTED_EDGE('',*,*,#120,.F.);
#163=ORIENTED_EDGE('',*,*,#121,.F.);
#164=ORIENTED_EDGE('',*,*,#122,.T.);
#165=ORIENTED_EDGE('',*,*,#123,.F.);
#166=ORIENTED_EDGE('',*,*,#122,.F.);
#167=ORIENTED_EDGE('',*,*,#124,.T.);
#168=ORIENTED_EDGE('',*,*,#125,.T.);
#169=ORIENTED_EDGE('',*,*,#126,.T.);
#170=ORIENTED_EDGE('',*,*,#127,.T.);
#171=ORIENTED_EDGE('',*,*,#125,.F.);
#172=ORIENTED_EDGE('',*,*,#128,.T.);
#173=ORIENTED_EDGE('',*,*,#124,.F.);
#174=ORIENTED_EDGE('',*,*,#129,.T.);
#175=ORIENTED_EDGE('',*,*,#130,.F.);
#176=ORIENTED_EDGE('',*,*,#131,.F.);
#177=ORIENTED_EDGE('',*,*,#129,.F.);
#178=ORIENTED_EDGE('',*,*,#128,.F.);
#179=ORIENTED_EDGE('',*,*,#132,.F.);
#180=ORIENTED_EDGE('',*,*,#133,.T.);
#181=ORIENTED_EDGE('',*,*,#126,.F.);
#182=ORIENTED_EDGE('',*,*,#127,.F.);
#183=ORIENTED_EDGE('',*,*,#133,.F.);
#184=ORIENTED_EDGE('',*,*,#130,.T.);
#185=ORIENTED_EDGE('',*,*,#131,.T.);
#186=ORIENTED_EDGE('',*,*,#134,.T.);
#187=ORIENTED_EDGE('',*,*,#135,.T.);
#188=ORIENTED_EDGE('',*,*,#136,.T.);
#189=ORIENTED_EDGE('',*,*,#134,.F.);
#190=ORIENTED_EDGE('',*,*,#136,.F.);
#191=ORIENTED_EDGE('',*,*,#137,.T.);
#192=ORIENTED_EDGE('',*,*,#138,.T.);
#193=ORIENTED_EDGE('',*,*,#137,.F.);
#194=ORIENTED_EDGE('',*,*,#135,.F.);
#195=ORIENTED_EDGE('',*,*,#132,.T.);
#196=ORIENTED_EDGE('',*,*,#117,.F.);
#197=ORIENTED_EDGE('',*,*,#138,.F.);
#198=ORIENTED_EDGE('',*,*,#123,.T.);
#199=TOROIDAL_SURFACE('',#235,0.435,0.25);
#200=TOROIDAL_SURFACE('',#251,0.5,0.25);
#201=ADVANCED_FACE('',(#39),#199,.T.);
#202=ADVANCED_FACE('',(#40),#37,.F.);
#203=ADVANCED_FACE('',(#41),#21,.F.);
#204=ADVANCED_FACE('',(#42),#19,.T.);
#205=ADVANCED_FACE('',(#43),#22,.F.);
#206=ADVANCED_FACE('',(#44),#200,.F.);
#207=ADVANCED_FACE('',(#45),#38,.T.);
#208=ADVANCED_FACE('',(#46),#23,.T.);
#209=ADVANCED_FACE('',(#47),#20,.F.);
#210=ADVANCED_FACE('',(#48),#24,.T.);
#211=ADVANCED_FACE('',(#49,#15),#17,.T.);
#212=ADVANCED_FACE('',(#50,#16),#18,.T.);
#213=CLOSED_SHELL('',(#201,#202,#203,#204,#205,#206,#207,#208,#209,#210,
#211,#212));
#214=DERIVED_UNIT_ELEMENT(#216,1.);
#215=DERIVED_UNIT_ELEMENT(#468,-3.);
#216=(
CONVERSION_BASED_UNIT('gram',#218)
MASS_UNIT()
NAMED_UNIT(#465)
);
#217=(
MASS_UNIT()
NAMED_UNIT(*)
SI_UNIT(.KILO.,.GRAM.)
);
#218=MASS_MEASURE_WITH_UNIT(MASS_MEASURE(0.001),#217);
#219=DERIVED_UNIT((#214,#215));
#220=MEASURE_REPRESENTATION_ITEM('density measure',
POSITIVE_RATIO_MEASURE(1.),#219);
#221=PROPERTY_DEFINITION_REPRESENTATION(#226,#223);
#222=PROPERTY_DEFINITION_REPRESENTATION(#227,#224);
#223=REPRESENTATION('material name',(#225),#462);
#224=REPRESENTATION('density',(#220),#462);
#225=DESCRIPTIVE_REPRESENTATION_ITEM('Generic','Generic');
#226=PROPERTY_DEFINITION('material property','material name',#476);
#227=PROPERTY_DEFINITION('material property','density of part',#476);
#228=DATE_TIME_ROLE('creation_date');
#229=APPLIED_DATE_AND_TIME_ASSIGNMENT(#230,#228,(#476));
#230=DATE_AND_TIME(#231,#232);
#231=CALENDAR_DATE(2016,30,3);
#232=LOCAL_TIME(0,0,0.,#233);
#233=COORDINATED_UNIVERSAL_TIME_OFFSET(0,0,.BEHIND.);
#234=AXIS2_PLACEMENT_3D('',#345,#269,#270);
#235=AXIS2_PLACEMENT_3D('',#346,#271,#272);
#236=AXIS2_PLACEMENT_3D('',#349,#273,#274);
#237=AXIS2_PLACEMENT_3D('',#350,#275,#276);
#238=AXIS2_PLACEMENT_3D('',#352,#277,#278);
#239=AXIS2_PLACEMENT_3D('',#354,#279,#280);
#240=AXIS2_PLACEMENT_3D('',#355,#281,#282);
#241=AXIS2_PLACEMENT_3D('',#356,#283,#284);
#242=AXIS2_PLACEMENT_3D('',#360,#286,#287);
#243=AXIS2_PLACEMENT_3D('',#361,#288,#289);
#244=AXIS2_PLACEMENT_3D('',#362,#290,#291);
#245=AXIS2_PLACEMENT_3D('',#364,#292,#293);
#246=AXIS2_PLACEMENT_3D('',#394,#295,#296);
#247=AXIS2_PLACEMENT_3D('',#396,#297,#298);
#248=AXIS2_PLACEMENT_3D('',#397,#299,#300);
#249=AXIS2_PLACEMENT_3D('',#398,#301,#302);
#250=AXIS2_PLACEMENT_3D('',#401,#304,#305);
#251=AXIS2_PLACEMENT_3D('',#402,#306,#307);
#252=AXIS2_PLACEMENT_3D('',#405,#308,#309);
#253=AXIS2_PLACEMENT_3D('',#407,#310,#311);
#254=AXIS2_PLACEMENT_3D('',#409,#312,#313);
#255=AXIS2_PLACEMENT_3D('',#410,#314,#315);
#256=AXIS2_PLACEMENT_3D('',#411,#316,#317);
#257=AXIS2_PLACEMENT_3D('',#412,#318,#319);
#258=AXIS2_PLACEMENT_3D('',#416,#321,#322);
#259=AXIS2_PLACEMENT_3D('',#417,#323,#324);
#260=AXIS2_PLACEMENT_3D('',#418,#325,#326);
#261=AXIS2_PLACEMENT_3D('',#420,#327,#328);
#262=AXIS2_PLACEMENT_3D('',#450,#330,#331);
#263=AXIS2_PLACEMENT_3D('',#452,#332,#333);
#264=AXIS2_PLACEMENT_3D('',#453,#334,#335);
#265=AXIS2_PLACEMENT_3D('',#454,#336,#337);
#266=AXIS2_PLACEMENT_3D('',#457,#339,#340);
#267=AXIS2_PLACEMENT_3D('',#458,#341,#342);
#268=AXIS2_PLACEMENT_3D('',#459,#343,#344);
#269=DIRECTION('axis',(0.,0.,1.));
#270=DIRECTION('refdir',(1.,0.,0.));
#271=DIRECTION('center_axis',(1.,8.41141057078204E-34,0.));
#272=DIRECTION('ref_axis',(0.,0.,-1.));
#273=DIRECTION('center_axis',(-1.,0.,0.));
#274=DIRECTION('ref_axis',(0.,-1.,3.06161699786838E-17));
#275=DIRECTION('center_axis',(-1.,0.,0.));
#276=DIRECTION('ref_axis',(0.,-1.,3.06161699786838E-17));
#277=DIRECTION('center_axis',(8.41141057078204E-34,-1.,-1.22464679914735E-16));
#278=DIRECTION('ref_axis',(0.,-1.22464679914735E-16,1.));
#279=DIRECTION('center_axis',(1.,8.41141057078204E-34,0.));
#280=DIRECTION('ref_axis',(0.,-1.,1.83697019872103E-16));
#281=DIRECTION('center_axis',(1.,8.41141057078204E-34,0.));
#282=DIRECTION('ref_axis',(0.,-1.,1.83697019872103E-16));
#283=DIRECTION('center_axis',(-1.,-8.41141057078204E-34,0.));
#284=DIRECTION('ref_axis',(0.,1.,0.));
#285=DIRECTION('',(-0.946772744819713,-0.321902733238702,-3.94217151897561E-17));
#286=DIRECTION('center_axis',(1.,0.,0.));
#287=DIRECTION('ref_axis',(0.,-1.,3.06161699786838E-17));
#288=DIRECTION('center_axis',(1.,0.,0.));
#289=DIRECTION('ref_axis',(0.,-1.,3.06161699786838E-17));
#290=DIRECTION('center_axis',(1.,8.41141057078204E-34,0.));
#291=DIRECTION('ref_axis',(0.,1.,0.));
#292=DIRECTION('center_axis',(1.,8.41141057078204E-34,0.));
#293=DIRECTION('ref_axis',(0.,0.,-1.));
#294=DIRECTION('',(-1.,-8.41141057078204E-34,0.));
#295=DIRECTION('center_axis',(8.41141057078204E-34,-1.,-1.22464679914735E-16));
#296=DIRECTION('ref_axis',(0.,-1.22464679914735E-16,1.));
#297=DIRECTION('center_axis',(-1.,-8.41141057078204E-34,0.));
#298=DIRECTION('ref_axis',(0.,-1.,1.83697019872103E-16));
#299=DIRECTION('center_axis',(-1.,-8.41141057078204E-34,0.));
#300=DIRECTION('ref_axis',(0.,-1.,1.83697019872103E-16));
#301=DIRECTION('center_axis',(1.,8.41141057078204E-34,0.));
#302=DIRECTION('ref_axis',(0.,1.,0.));
#303=DIRECTION('',(-1.,-8.41141057078204E-34,0.));
#304=DIRECTION('center_axis',(1.,8.41141057078204E-34,0.));
#305=DIRECTION('ref_axis',(0.,0.,-1.));
#306=DIRECTION('center_axis',(1.,8.41141057078204E-34,0.));
#307=DIRECTION('ref_axis',(0.,0.,-1.));
#308=DIRECTION('center_axis',(1.,0.,0.));
#309=DIRECTION('ref_axis',(0.,-1.,3.06161699786838E-17));
#310=DIRECTION('center_axis',(8.41141057078204E-34,-1.,-1.22464679914735E-16));
#311=DIRECTION('ref_axis',(0.,-1.22464679914735E-16,1.));
#312=DIRECTION('center_axis',(-1.,-8.41141057078204E-34,0.));
#313=DIRECTION('ref_axis',(0.,-1.,1.83697019872103E-16));
#314=DIRECTION('center_axis',(-1.,-8.41141057078204E-34,0.));
#315=DIRECTION('ref_axis',(0.,-1.,1.83697019872103E-16));
#316=DIRECTION('center_axis',(1.,0.,0.));
#317=DIRECTION('ref_axis',(0.,-1.,3.06161699786838E-17));
#318=DIRECTION('center_axis',(-1.,-8.41141057078204E-34,0.));
#319=DIRECTION('ref_axis',(0.,1.,0.));
#320=DIRECTION('',(-0.946772744819713,-0.321902733238702,-3.94217151897561E-17));
#321=DIRECTION('center_axis',(-1.,0.,0.));
#322=DIRECTION('ref_axis',(0.,-1.,3.06161699786838E-17));
#323=DIRECTION('center_axis',(-1.,0.,0.));
#324=DIRECTION('ref_axis',(0.,-1.,3.06161699786838E-17));
#325=DIRECTION('center_axis',(1.,8.41141057078204E-34,0.));
#326=DIRECTION('ref_axis',(0.,1.,0.));
#327=DIRECTION('center_axis',(1.,8.41141057078204E-34,0.));
#328=DIRECTION('ref_axis',(0.,0.,-1.));
#329=DIRECTION('',(-1.,-8.41141057078204E-34,0.));
#330=DIRECTION('center_axis',(8.41141057078204E-34,-1.,-1.22464679914735E-16));
#331=DIRECTION('ref_axis',(0.,-1.22464679914735E-16,1.));
#332=DIRECTION('center_axis',(1.,8.41141057078204E-34,0.));
#333=DIRECTION('ref_axis',(0.,-1.,1.83697019872103E-16));
#334=DIRECTION('center_axis',(1.,8.41141057078204E-34,0.));
#335=DIRECTION('ref_axis',(0.,-1.,1.83697019872103E-16));
#336=DIRECTION('center_axis',(1.,8.41141057078204E-34,0.));
#337=DIRECTION('ref_axis',(0.,1.,0.));
#338=DIRECTION('',(-1.,-8.41141057078204E-34,0.));
#339=DIRECTION('center_axis',(1.,8.41141057078204E-34,0.));
#340=DIRECTION('ref_axis',(0.,0.,-1.));
#341=DIRECTION('center_axis',(1.,8.41141057078204E-34,0.));
#342=DIRECTION('ref_axis',(0.,0.,-1.));
#343=DIRECTION('center_axis',(-1.,-8.41141057078204E-34,0.));
#344=DIRECTION('ref_axis',(0.,0.,1.));
#345=CARTESIAN_POINT('',(0.,0.,0.));
#346=CARTESIAN_POINT('Origin',(0.974672604641723,8.19837144973505E-34,0.));
#347=CARTESIAN_POINT('',(0.894196921332047,-2.42855804763245E-17,0.198306813795072));
#348=CARTESIAN_POINT('',(0.894196921332047,-0.198306813795072,-2.42855804763245E-17));
#349=CARTESIAN_POINT('Origin',(0.894196921332047,0.,-3.03569755954056E-17));
#350=CARTESIAN_POINT('Origin',(0.894196921332047,0.,-3.03569755954056E-17));
#351=CARTESIAN_POINT('',(0.974672604641723,-2.2655965784226E-17,0.185));
#352=CARTESIAN_POINT('Origin',(0.974672604641723,-5.32721357629099E-17,
0.435));
#353=CARTESIAN_POINT('',(0.974672604641723,-0.185,-2.2655965784226E-17));
#354=CARTESIAN_POINT('Origin',(0.974672604641723,8.19837144973505E-34,0.));
#355=CARTESIAN_POINT('Origin',(0.974672604641723,8.19837144973505E-34,0.));
#356=CARTESIAN_POINT('Origin',(0.709805197199906,5.97046293892331E-34,0.));
#357=CARTESIAN_POINT('',(0.525413473067764,-0.323693186204928,-3.96409824391673E-17));
#358=CARTESIAN_POINT('',(0.709805197199906,-0.261,-3.19632814577459E-17));
#359=CARTESIAN_POINT('',(0.525413473067764,-3.96409824391673E-17,0.323693186204928));
#360=CARTESIAN_POINT('Origin',(0.525413473067764,0.,-4.95512280489592E-17));
#361=CARTESIAN_POINT('Origin',(0.525413473067764,0.,-4.95512280489592E-17));
#362=CARTESIAN_POINT('Origin',(1.21666730448231,1.02338882260474E-33,0.));
#363=CARTESIAN_POINT('',(1.5,-0.185,-2.2655965784226E-17));
#364=CARTESIAN_POINT('Origin',(1.5,1.26171158561731E-33,0.));
#365=CARTESIAN_POINT('',(1.21666730448231,-0.185,-2.2655965784226E-17));
#366=CARTESIAN_POINT('Ctrl Pts',(0.444937789758088,3.74255442811158E-34,
0.337));
#367=CARTESIAN_POINT('Ctrl Pts',(0.444937789758088,-0.337,0.337));
#368=CARTESIAN_POINT('Ctrl Pts',(0.444937789758088,-0.337,0.));
#369=CARTESIAN_POINT('Ctrl Pts',(0.444937789758088,-0.337,-0.337));
#370=CARTESIAN_POINT('Ctrl Pts',(0.444937789758088,3.74255442811158E-34,
-0.337));
#371=CARTESIAN_POINT('Ctrl Pts',(0.444937789758088,0.337,-0.337));
#372=CARTESIAN_POINT('Ctrl Pts',(0.444937789758088,0.337,0.));
#373=CARTESIAN_POINT('Ctrl Pts',(0.444937789758088,0.337,0.337));
#374=CARTESIAN_POINT('Ctrl Pts',(0.444937789758088,3.74255442811158E-34,
0.337));
#375=CARTESIAN_POINT('Ctrl Pts',(0.4862757854352,4.09026528192497E-34,0.337));
#376=CARTESIAN_POINT('Ctrl Pts',(0.4862757854352,-0.337,0.337));
#377=CARTESIAN_POINT('Ctrl Pts',(0.4862757854352,-0.337,0.));
#378=CARTESIAN_POINT('Ctrl Pts',(0.4862757854352,-0.337,-0.337));
#379=CARTESIAN_POINT('Ctrl Pts',(0.4862757854352,4.09026528192497E-34,-0.337));
#380=CARTESIAN_POINT('Ctrl Pts',(0.4862757854352,0.337,-0.337));
#381=CARTESIAN_POINT('Ctrl Pts',(0.4862757854352,0.337,0.));
#382=CARTESIAN_POINT('Ctrl Pts',(0.4862757854352,0.337,0.337));
#383=CARTESIAN_POINT('Ctrl Pts',(0.4862757854352,4.09026528192497E-34,0.337));
#384=CARTESIAN_POINT('Ctrl Pts',(0.525413473067764,4.41946844139349E-34,
0.323693186204928));
#385=CARTESIAN_POINT('Ctrl Pts',(0.525413473067764,-0.323693186204928,0.323693186204928));
#386=CARTESIAN_POINT('Ctrl Pts',(0.525413473067764,-0.323693186204928,0.));
#387=CARTESIAN_POINT('Ctrl Pts',(0.525413473067764,-0.323693186204928,-0.323693186204928));
#388=CARTESIAN_POINT('Ctrl Pts',(0.525413473067764,4.41946844139349E-34,
-0.323693186204928));
#389=CARTESIAN_POINT('Ctrl Pts',(0.525413473067764,0.323693186204928,-0.323693186204928));
#390=CARTESIAN_POINT('Ctrl Pts',(0.525413473067764,0.323693186204928,0.));
#391=CARTESIAN_POINT('Ctrl Pts',(0.525413473067764,0.323693186204928,0.323693186204928));
#392=CARTESIAN_POINT('Ctrl Pts',(0.525413473067764,4.41946844139349E-34,
0.323693186204928));
#393=CARTESIAN_POINT('',(0.444937789758088,-4.12705971312658E-17,0.337));
#394=CARTESIAN_POINT('Origin',(0.444937789758088,-1.0654427152582E-17,0.0869999999999999));
#395=CARTESIAN_POINT('',(0.444937789758088,-0.337,-4.12705971312658E-17));
#396=CARTESIAN_POINT('Origin',(0.444937789758088,3.74255442811158E-34,0.));
#397=CARTESIAN_POINT('Origin',(0.444937789758088,3.74255442811158E-34,0.));
#398=CARTESIAN_POINT('Origin',(0.2431378927176,2.04513264096249E-34,0.));
#399=CARTESIAN_POINT('',(-8.74191357972564E-17,-0.337,-4.12705971312658E-17));
#400=CARTESIAN_POINT('',(0.2431378927176,-0.337,-4.12705971312658E-17));
#401=CARTESIAN_POINT('Origin',(-8.74191357972564E-17,-7.35318242933673E-50,
0.));
#402=CARTESIAN_POINT('Origin',(1.04133799567711,8.75912142459543E-34,0.));
#403=CARTESIAN_POINT('',(0.960862312367436,-0.263306813795072,-3.22457846707823E-17));
#404=CARTESIAN_POINT('',(0.960862312367436,-3.22457846707823E-17,0.263306813795072));
#405=CARTESIAN_POINT('Origin',(0.960862312367436,0.,-4.03072308384779E-17));
#406=CARTESIAN_POINT('',(1.04133799567711,-3.06161699786838E-17,0.25));
#407=CARTESIAN_POINT('Origin',(1.04133799567711,-6.12323399573677E-17,0.5));
#408=CARTESIAN_POINT('',(1.04133799567711,-0.25,-3.06161699786838E-17));
#409=CARTESIAN_POINT('Origin',(1.04133799567711,8.75912142459543E-34,0.));
#410=CARTESIAN_POINT('Origin',(1.04133799567711,8.75912142459543E-34,0.));
#411=CARTESIAN_POINT('Origin',(0.960862312367436,0.,-4.03072308384779E-17));
#412=CARTESIAN_POINT('Origin',(0.75,6.30855792808652E-34,0.));
#413=CARTESIAN_POINT('',(0.539137687632564,-0.406693186204928,-4.98055508720904E-17));
#414=CARTESIAN_POINT('',(0.75,-0.335,-4.10256677714363E-17));
#415=CARTESIAN_POINT('',(0.539137687632564,-4.98055508720904E-17,0.406693186204928));
#416=CARTESIAN_POINT('Origin',(0.539137687632564,0.,-6.2256938590113E-17));
#417=CARTESIAN_POINT('Origin',(0.539137687632564,0.,-6.2256938590113E-17));
#418=CARTESIAN_POINT('Origin',(1.25,1.05142632134775E-33,0.));
#419=CARTESIAN_POINT('',(1.5,-0.25,-3.06161699786838E-17));
#420=CARTESIAN_POINT('Origin',(1.5,1.26171158561731E-33,0.));
#421=CARTESIAN_POINT('',(1.25,-0.25,-3.06161699786838E-17));
#422=CARTESIAN_POINT('Ctrl Pts',(0.458662004322888,3.85799443157762E-34,
0.42));
#423=CARTESIAN_POINT('Ctrl Pts',(0.458662004322888,-0.42,0.42));
#424=CARTESIAN_POINT('Ctrl Pts',(0.458662004322888,-0.42,0.));
#425=CARTESIAN_POINT('Ctrl Pts',(0.458662004322888,-0.42,-0.42));
#426=CARTESIAN_POINT('Ctrl Pts',(0.458662004322888,3.85799443157762E-34,
-0.42));
#427=CARTESIAN_POINT('Ctrl Pts',(0.458662004322888,0.42,-0.42));
#428=CARTESIAN_POINT('Ctrl Pts',(0.458662004322888,0.42,0.));
#429=CARTESIAN_POINT('Ctrl Pts',(0.458662004322888,0.42,0.42));
#430=CARTESIAN_POINT('Ctrl Pts',(0.458662004322888,3.85799443157762E-34,
0.42));
#431=CARTESIAN_POINT('Ctrl Pts',(0.5,4.20570528539101E-34,0.42));
#432=CARTESIAN_POINT('Ctrl Pts',(0.5,-0.42,0.42));
#433=CARTESIAN_POINT('Ctrl Pts',(0.5,-0.42,-6.73452525377561E-50));
#434=CARTESIAN_POINT('Ctrl Pts',(0.5,-0.42,-0.42));
#435=CARTESIAN_POINT('Ctrl Pts',(0.5,4.20570528539102E-34,-0.42));
#436=CARTESIAN_POINT('Ctrl Pts',(0.5,0.42,-0.42));
#437=CARTESIAN_POINT('Ctrl Pts',(0.5,0.42,6.73452525377561E-50));
#438=CARTESIAN_POINT('Ctrl Pts',(0.5,0.42,0.42));
#439=CARTESIAN_POINT('Ctrl Pts',(0.5,4.20570528539101E-34,0.42));
#440=CARTESIAN_POINT('Ctrl Pts',(0.539137687632564,4.53490844485953E-34,
0.406693186204928));
#441=CARTESIAN_POINT('Ctrl Pts',(0.539137687632564,-0.406693186204928,0.406693186204928));
#442=CARTESIAN_POINT('Ctrl Pts',(0.539137687632564,-0.406693186204928,0.));
#443=CARTESIAN_POINT('Ctrl Pts',(0.539137687632564,-0.406693186204928,-0.406693186204928));
#444=CARTESIAN_POINT('Ctrl Pts',(0.539137687632564,4.53490844485953E-34,
-0.406693186204928));
#445=CARTESIAN_POINT('Ctrl Pts',(0.539137687632564,0.406693186204928,-0.406693186204928));
#446=CARTESIAN_POINT('Ctrl Pts',(0.539137687632564,0.406693186204928,0.));
#447=CARTESIAN_POINT('Ctrl Pts',(0.539137687632564,0.406693186204928,0.406693186204928));
#448=CARTESIAN_POINT('Ctrl Pts',(0.539137687632564,4.53490844485953E-34,
0.406693186204928));
#449=CARTESIAN_POINT('',(0.458662004322888,-5.14351655641888E-17,0.42));
#450=CARTESIAN_POINT('Origin',(0.458662004322888,-2.0818995585505E-17,0.17));
#451=CARTESIAN_POINT('',(0.458662004322888,-0.42,-5.14351655641888E-17));
#452=CARTESIAN_POINT('Origin',(0.458662004322888,3.85799443157762E-34,0.));
#453=CARTESIAN_POINT('Origin',(0.458662004322888,3.85799443157762E-34,0.));
#454=CARTESIAN_POINT('Origin',(0.25,2.10285264269551E-34,0.));
#455=CARTESIAN_POINT('',(-8.74191357972564E-17,-0.42,-5.14351655641888E-17));
#456=CARTESIAN_POINT('',(0.25,-0.42,-5.14351655641888E-17));
#457=CARTESIAN_POINT('Origin',(-8.74191357972564E-17,-7.35318242933673E-50,
0.));
#458=CARTESIAN_POINT('Origin',(1.5,0.185,0.));
#459=CARTESIAN_POINT('Origin',(-8.74191357972564E-17,0.42,0.));
#460=UNCERTAINTY_MEASURE_WITH_UNIT(LENGTH_MEASURE(0.000393700787401575),
#466,'DISTANCE_ACCURACY_VALUE',
'Maximum model space distance between geometric entities at asserted c
onnectivities');
#461=UNCERTAINTY_MEASURE_WITH_UNIT(LENGTH_MEASURE(0.000393700787401575),
#466,'DISTANCE_ACCURACY_VALUE',
'Maximum model space distance between geometric entities at asserted c
onnectivities');
#462=(
GEOMETRIC_REPRESENTATION_CONTEXT(3)
GLOBAL_UNCERTAINTY_ASSIGNED_CONTEXT((#460))
GLOBAL_UNIT_ASSIGNED_CONTEXT((#466,#470,#471))
REPRESENTATION_CONTEXT('','3D')
);
#463=(
GEOMETRIC_REPRESENTATION_CONTEXT(3)
GLOBAL_UNCERTAINTY_ASSIGNED_CONTEXT((#461))
GLOBAL_UNIT_ASSIGNED_CONTEXT((#466,#470,#471))
REPRESENTATION_CONTEXT('','3D')
);
#464=DIMENSIONAL_EXPONENTS(1.,0.,0.,0.,0.,0.,0.);
#465=DIMENSIONAL_EXPONENTS(0.,1.,0.,0.,0.,0.,0.);
#466=(
CONVERSION_BASED_UNIT('inch',#469)
LENGTH_UNIT()
NAMED_UNIT(#464)
);
#467=(
LENGTH_UNIT()
NAMED_UNIT(*)
SI_UNIT(.MILLI.,.METRE.)
);
#468=(
LENGTH_UNIT()
NAMED_UNIT(*)
SI_UNIT(.CENTI.,.METRE.)
);
#469=LENGTH_MEASURE_WITH_UNIT(LENGTH_MEASURE(25.4),#467);
#470=(
NAMED_UNIT(*)
PLANE_ANGLE_UNIT()
SI_UNIT($,.RADIAN.)
);
#471=(
NAMED_UNIT(*)
SI_UNIT($,.STERADIAN.)
SOLID_ANGLE_UNIT()
);
#472=SHAPE_DEFINITION_REPRESENTATION(#473,#474);
#473=PRODUCT_DEFINITION_SHAPE('',$,#476);
#474=SHAPE_REPRESENTATION('',(#234),#462);
#475=PRODUCT_DEFINITION_CONTEXT('part definition',#480,'design');
#476=PRODUCT_DEFINITION('19WX-.50','19WX-.50',#477,#475);
#477=PRODUCT_DEFINITION_FORMATION('',$,#482);
#478=PRODUCT_RELATED_PRODUCT_CATEGORY('19WX-.50','19WX-.50',(#482));
#479=APPLICATION_PROTOCOL_DEFINITION('international standard',
'automotive_design',2009,#480);
#480=APPLICATION_CONTEXT(
'Core Data for Automotive Mechanical Design Process');
#481=PRODUCT_CONTEXT('part definition',#480,'mechanical');
#482=PRODUCT('19WX-.50','19WX-.50',$,(#481));
#483=PRESENTATION_STYLE_ASSIGNMENT((#484));
#484=SURFACE_STYLE_USAGE(.BOTH.,#487);
#485=SURFACE_STYLE_RENDERING_WITH_PROPERTIES($,#491,(#486));
#486=SURFACE_STYLE_TRANSPARENT(0.);
#487=SURFACE_SIDE_STYLE('',(#488,#485));
#488=SURFACE_STYLE_FILL_AREA(#489);
#489=FILL_AREA_STYLE('',(#490));
#490=FILL_AREA_STYLE_COLOUR('',#491);
#491=COLOUR_RGB('',0.749019607843137,0.749019607843137,0.749019607843137);
ENDSEC;
END-ISO-10303-21;
