ISO-10303-21;
HEADER;
/* Generated by software containing ST-Developer
 * from STEP Tools, Inc. (www.steptools.com) 
 */

FILE_DESCRIPTION(
/* description */ (''),
/* implementation_level */ '2;1');

FILE_NAME(
/* name */ '19WX-.75.stp',
/* time_stamp */ '2025-08-01T11:12:59-04:00',
/* author */ ('brad'),
/* organization */ (''),
/* preprocessor_version */ 'ST-DEVELOPER v20',
/* originating_system */ 'Autodesk Inventor 2025',
/* authorisation */ '');

FILE_SCHEMA (('AUTOMOTIVE_DESIGN { 1 0 10303 214 3 1 1 }'));
ENDSEC;

DATA;
#10=MECHANICAL_DESIGN_GEOMETRIC_PRESENTATION_REPRESENTATION('',(#13),#440);
#11=SHAPE_REPRESENTATION_RELATIONSHIP('SRR','None',#451,#12);
#12=ADVANCED_BREP_SHAPE_REPRESENTATION('',(#14),#439);
#13=STYLED_ITEM('',(#460),#14);
#14=MANIFOLD_SOLID_BREP('Solid1',#213);
#15=FACE_BOUND('',#61,.T.);
#16=FACE_BOUND('',#63,.T.);
#17=PLANE('',#268);
#18=PLANE('',#269);
#19=(
BOUNDED_SURFACE()
B_SPLINE_SURFACE(2,2,((#369,#370,#371,#372,#373,#374,#375,#376,#377),(#378,
#379,#380,#381,#382,#383,#384,#385,#386),(#387,#388,#389,#390,#391,#392,
#393,#394,#395)),.UNSPECIFIED.,.F.,.T.,.F.)
B_SPLINE_SURFACE_WITH_KNOTS((3,3),(3,2,2,2,3),(-1.1153530416857E-33,0.148889947609497),
(-3.14159265358979,-1.5707963267949,0.,1.5707963267949,3.14159265358979),
 .UNSPECIFIED.)
GEOMETRIC_REPRESENTATION_ITEM()
RATIONAL_B_SPLINE_SURFACE(((1.,0.707106781186548,1.,0.707106781186548,1.,
0.707106781186548,1.,0.707106781186548,1.),(0.997230252466473,0.705148273923416,
0.997230252466473,0.705148273923416,0.997230252466473,0.705148273923416,
0.997230252466473,0.705148273923416,0.997230252466473),(1.,0.707106781186548,
1.,0.707106781186548,1.,0.707106781186548,1.,0.707106781186548,1.)))
REPRESENTATION_ITEM('')
SURFACE()
);
#20=CYLINDRICAL_SURFACE('',#244,0.31);
#21=CYLINDRICAL_SURFACE('',#249,0.442);
#22=CYLINDRICAL_SURFACE('',#260,0.375);
#23=CYLINDRICAL_SURFACE('',#266,0.525);
#24=LINE('',#361,#30);
#25=LINE('',#368,#31);
#26=LINE('',#403,#32);
#27=LINE('',#417,#33);
#28=LINE('',#424,#34);
#29=LINE('',#433,#35);
#30=VECTOR('',#286,0.376);
#31=VECTOR('',#295,0.31);
#32=VECTOR('',#304,0.442);
#33=VECTOR('',#321,0.45);
#34=VECTOR('',#330,0.375);
#35=VECTOR('',#341,0.525);
#36=CONICAL_SURFACE('',#241,0.376,0.148889947609498);
#37=CONICAL_SURFACE('',#257,0.45,0.148889947609498);
#38=FACE_OUTER_BOUND('',#50,.T.);
#39=FACE_OUTER_BOUND('',#51,.T.);
#40=FACE_OUTER_BOUND('',#52,.T.);
#41=FACE_OUTER_BOUND('',#53,.T.);
#42=FACE_OUTER_BOUND('',#54,.T.);
#43=FACE_OUTER_BOUND('',#55,.T.);
#44=FACE_OUTER_BOUND('',#56,.T.);
#45=FACE_OUTER_BOUND('',#57,.T.);
#46=FACE_OUTER_BOUND('',#58,.T.);
#47=FACE_OUTER_BOUND('',#59,.T.);
#48=FACE_OUTER_BOUND('',#60,.T.);
#49=FACE_OUTER_BOUND('',#62,.T.);
#50=EDGE_LOOP('',(#138,#139,#140,#141,#142,#143));
#51=EDGE_LOOP('',(#144,#145,#146,#147,#148,#149));
#52=EDGE_LOOP('',(#150,#151,#152,#153,#154));
#53=EDGE_LOOP('',(#155,#156,#157,#158,#159,#160));
#54=EDGE_LOOP('',(#161,#162,#163,#164,#165));
#55=EDGE_LOOP('',(#166,#167,#168,#169,#170,#171));
#56=EDGE_LOOP('',(#172,#173,#174,#175,#176,#177));
#57=EDGE_LOOP('',(#178,#179,#180,#181,#182));
#58=EDGE_LOOP('',(#183,#184,#185,#186,#187,#188));
#59=EDGE_LOOP('',(#189,#190,#191,#192,#193));
#60=EDGE_LOOP('',(#194));
#61=EDGE_LOOP('',(#195));
#62=EDGE_LOOP('',(#196));
#63=EDGE_LOOP('',(#197));
#64=CIRCLE('',#236,0.312765911782926);
#65=CIRCLE('',#237,0.312765911782926);
#66=CIRCLE('',#238,0.25);
#67=CIRCLE('',#239,0.31);
#68=CIRCLE('',#240,0.31);
#69=CIRCLE('',#242,0.439234088217075);
#70=CIRCLE('',#243,0.439234088217075);
#71=CIRCLE('',#245,0.31);
#72=CIRCLE('',#246,0.25);
#73=CIRCLE('',#247,0.442);
#74=CIRCLE('',#248,0.442);
#75=CIRCLE('',#250,0.442);
#76=CIRCLE('',#252,0.377765911782925);
#77=CIRCLE('',#253,0.25);
#78=CIRCLE('',#254,0.375);
#79=CIRCLE('',#255,0.375);
#80=CIRCLE('',#256,0.377765911782925);
#81=CIRCLE('',#258,0.522234088217075);
#82=CIRCLE('',#259,0.522234088217075);
#83=CIRCLE('',#261,0.375);
#84=CIRCLE('',#263,0.25);
#85=CIRCLE('',#264,0.525);
#86=CIRCLE('',#265,0.525);
#87=CIRCLE('',#267,0.525);
#88=VERTEX_POINT('',#350);
#89=VERTEX_POINT('',#351);
#90=VERTEX_POINT('',#354);
#91=VERTEX_POINT('',#356);
#92=VERTEX_POINT('',#360);
#93=VERTEX_POINT('',#362);
#94=VERTEX_POINT('',#366);
#95=VERTEX_POINT('',#396);
#96=VERTEX_POINT('',#398);
#97=VERTEX_POINT('',#402);
#98=VERTEX_POINT('',#406);
#99=VERTEX_POINT('',#407);
#100=VERTEX_POINT('',#409);
#101=VERTEX_POINT('',#411);
#102=VERTEX_POINT('',#416);
#103=VERTEX_POINT('',#418);
#104=VERTEX_POINT('',#422);
#105=VERTEX_POINT('',#426);
#106=VERTEX_POINT('',#428);
#107=VERTEX_POINT('',#432);
#108=EDGE_CURVE('',#88,#89,#64,.T.);
#109=EDGE_CURVE('',#89,#88,#65,.T.);
#110=EDGE_CURVE('',#88,#90,#66,.T.);
#111=EDGE_CURVE('',#90,#91,#67,.T.);
#112=EDGE_CURVE('',#91,#90,#68,.T.);
#113=EDGE_CURVE('',#89,#92,#24,.T.);
#114=EDGE_CURVE('',#93,#92,#69,.T.);
#115=EDGE_CURVE('',#92,#93,#70,.T.);
#116=EDGE_CURVE('',#94,#94,#71,.T.);
#117=EDGE_CURVE('',#94,#91,#25,.T.);
#118=EDGE_CURVE('',#93,#95,#72,.T.);
#119=EDGE_CURVE('',#95,#96,#73,.T.);
#120=EDGE_CURVE('',#96,#95,#74,.T.);
#121=EDGE_CURVE('',#96,#97,#26,.T.);
#122=EDGE_CURVE('',#97,#97,#75,.T.);
#123=EDGE_CURVE('',#98,#99,#76,.T.);
#124=EDGE_CURVE('',#99,#100,#77,.T.);
#125=EDGE_CURVE('',#100,#101,#78,.T.);
#126=EDGE_CURVE('',#101,#100,#79,.T.);
#127=EDGE_CURVE('',#99,#98,#80,.T.);
#128=EDGE_CURVE('',#98,#102,#27,.T.);
#129=EDGE_CURVE('',#103,#102,#81,.T.);
#130=EDGE_CURVE('',#102,#103,#82,.T.);
#131=EDGE_CURVE('',#104,#104,#83,.T.);
#132=EDGE_CURVE('',#104,#101,#28,.T.);
#133=EDGE_CURVE('',#103,#105,#84,.T.);
#134=EDGE_CURVE('',#105,#106,#85,.T.);
#135=EDGE_CURVE('',#106,#105,#86,.T.);
#136=EDGE_CURVE('',#106,#107,#29,.T.);
#137=EDGE_CURVE('',#107,#107,#87,.T.);
#138=ORIENTED_EDGE('',*,*,#108,.T.);
#139=ORIENTED_EDGE('',*,*,#109,.T.);
#140=ORIENTED_EDGE('',*,*,#110,.T.);
#141=ORIENTED_EDGE('',*,*,#111,.T.);
#142=ORIENTED_EDGE('',*,*,#112,.T.);
#143=ORIENTED_EDGE('',*,*,#110,.F.);
#144=ORIENTED_EDGE('',*,*,#108,.F.);
#145=ORIENTED_EDGE('',*,*,#109,.F.);
#146=ORIENTED_EDGE('',*,*,#113,.T.);
#147=ORIENTED_EDGE('',*,*,#114,.F.);
#148=ORIENTED_EDGE('',*,*,#115,.F.);
#149=ORIENTED_EDGE('',*,*,#113,.F.);
#150=ORIENTED_EDGE('',*,*,#116,.T.);
#151=ORIENTED_EDGE('',*,*,#117,.T.);
#152=ORIENTED_EDGE('',*,*,#111,.F.);
#153=ORIENTED_EDGE('',*,*,#112,.F.);
#154=ORIENTED_EDGE('',*,*,#117,.F.);
#155=ORIENTED_EDGE('',*,*,#115,.T.);
#156=ORIENTED_EDGE('',*,*,#118,.T.);
#157=ORIENTED_EDGE('',*,*,#119,.T.);
#158=ORIENTED_EDGE('',*,*,#120,.T.);
#159=ORIENTED_EDGE('',*,*,#118,.F.);
#160=ORIENTED_EDGE('',*,*,#114,.T.);
#161=ORIENTED_EDGE('',*,*,#119,.F.);
#162=ORIENTED_EDGE('',*,*,#120,.F.);
#163=ORIENTED_EDGE('',*,*,#121,.T.);
#164=ORIENTED_EDGE('',*,*,#122,.F.);
#165=ORIENTED_EDGE('',*,*,#121,.F.);
#166=ORIENTED_EDGE('',*,*,#123,.T.);
#167=ORIENTED_EDGE('',*,*,#124,.T.);
#168=ORIENTED_EDGE('',*,*,#125,.T.);
#169=ORIENTED_EDGE('',*,*,#126,.T.);
#170=ORIENTED_EDGE('',*,*,#124,.F.);
#171=ORIENTED_EDGE('',*,*,#127,.T.);
#172=ORIENTED_EDGE('',*,*,#123,.F.);
#173=ORIENTED_EDGE('',*,*,#128,.T.);
#174=ORIENTED_EDGE('',*,*,#129,.F.);
#175=ORIENTED_EDGE('',*,*,#130,.F.);
#176=ORIENTED_EDGE('',*,*,#128,.F.);
#177=ORIENTED_EDGE('',*,*,#127,.F.);
#178=ORIENTED_EDGE('',*,*,#131,.F.);
#179=ORIENTED_EDGE('',*,*,#132,.T.);
#180=ORIENTED_EDGE('',*,*,#125,.F.);
#181=ORIENTED_EDGE('',*,*,#126,.F.);
#182=ORIENTED_EDGE('',*,*,#132,.F.);
#183=ORIENTED_EDGE('',*,*,#129,.T.);
#184=ORIENTED_EDGE('',*,*,#130,.T.);
#185=ORIENTED_EDGE('',*,*,#133,.T.);
#186=ORIENTED_EDGE('',*,*,#134,.T.);
#187=ORIENTED_EDGE('',*,*,#135,.T.);
#188=ORIENTED_EDGE('',*,*,#133,.F.);
#189=ORIENTED_EDGE('',*,*,#135,.F.);
#190=ORIENTED_EDGE('',*,*,#136,.T.);
#191=ORIENTED_EDGE('',*,*,#137,.T.);
#192=ORIENTED_EDGE('',*,*,#136,.F.);
#193=ORIENTED_EDGE('',*,*,#134,.F.);
#194=ORIENTED_EDGE('',*,*,#131,.T.);
#195=ORIENTED_EDGE('',*,*,#116,.F.);
#196=ORIENTED_EDGE('',*,*,#137,.F.);
#197=ORIENTED_EDGE('',*,*,#122,.T.);
#198=TOROIDAL_SURFACE('',#235,0.56,0.25);
#199=TOROIDAL_SURFACE('',#251,0.625,0.25);
#200=TOROIDAL_SURFACE('',#262,0.275,0.25);
#201=ADVANCED_FACE('',(#38),#198,.T.);
#202=ADVANCED_FACE('',(#39),#36,.F.);
#203=ADVANCED_FACE('',(#40),#20,.F.);
#204=ADVANCED_FACE('',(#41),#19,.T.);
#205=ADVANCED_FACE('',(#42),#21,.F.);
#206=ADVANCED_FACE('',(#43),#199,.F.);
#207=ADVANCED_FACE('',(#44),#37,.T.);
#208=ADVANCED_FACE('',(#45),#22,.T.);
#209=ADVANCED_FACE('',(#46),#200,.T.);
#210=ADVANCED_FACE('',(#47),#23,.T.);
#211=ADVANCED_FACE('',(#48,#15),#17,.T.);
#212=ADVANCED_FACE('',(#49,#16),#18,.T.);
#213=CLOSED_SHELL('',(#201,#202,#203,#204,#205,#206,#207,#208,#209,#210,
#211,#212));
#214=DERIVED_UNIT_ELEMENT(#216,1.);
#215=DERIVED_UNIT_ELEMENT(#445,-3.);
#216=(
CONVERSION_BASED_UNIT('gram',#218)
MASS_UNIT()
NAMED_UNIT(#442)
);
#217=(
MASS_UNIT()
NAMED_UNIT(*)
SI_UNIT(.KILO.,.GRAM.)
);
#218=MASS_MEASURE_WITH_UNIT(MASS_MEASURE(0.001),#217);
#219=DERIVED_UNIT((#214,#215));
#220=MEASURE_REPRESENTATION_ITEM('density measure',
POSITIVE_RATIO_MEASURE(1.),#219);
#221=PROPERTY_DEFINITION_REPRESENTATION(#226,#223);
#222=PROPERTY_DEFINITION_REPRESENTATION(#227,#224);
#223=REPRESENTATION('material name',(#225),#439);
#224=REPRESENTATION('density',(#220),#439);
#225=DESCRIPTIVE_REPRESENTATION_ITEM('Generic','Generic');
#226=PROPERTY_DEFINITION('material property','material name',#453);
#227=PROPERTY_DEFINITION('material property','density of part',#453);
#228=DATE_TIME_ROLE('creation_date');
#229=APPLIED_DATE_AND_TIME_ASSIGNMENT(#230,#228,(#453));
#230=DATE_AND_TIME(#231,#232);
#231=CALENDAR_DATE(2016,30,3);
#232=LOCAL_TIME(0,0,0.,#233);
#233=COORDINATED_UNIVERSAL_TIME_OFFSET(0,0,.BEHIND.);
#234=AXIS2_PLACEMENT_3D('',#348,#270,#271);
#235=AXIS2_PLACEMENT_3D('',#349,#272,#273);
#236=AXIS2_PLACEMENT_3D('',#352,#274,#275);
#237=AXIS2_PLACEMENT_3D('',#353,#276,#277);
#238=AXIS2_PLACEMENT_3D('',#355,#278,#279);
#239=AXIS2_PLACEMENT_3D('',#357,#280,#281);
#240=AXIS2_PLACEMENT_3D('',#358,#282,#283);
#241=AXIS2_PLACEMENT_3D('',#359,#284,#285);
#242=AXIS2_PLACEMENT_3D('',#363,#287,#288);
#243=AXIS2_PLACEMENT_3D('',#364,#289,#290);
#244=AXIS2_PLACEMENT_3D('',#365,#291,#292);
#245=AXIS2_PLACEMENT_3D('',#367,#293,#294);
#246=AXIS2_PLACEMENT_3D('',#397,#296,#297);
#247=AXIS2_PLACEMENT_3D('',#399,#298,#299);
#248=AXIS2_PLACEMENT_3D('',#400,#300,#301);
#249=AXIS2_PLACEMENT_3D('',#401,#302,#303);
#250=AXIS2_PLACEMENT_3D('',#404,#305,#306);
#251=AXIS2_PLACEMENT_3D('',#405,#307,#308);
#252=AXIS2_PLACEMENT_3D('',#408,#309,#310);
#253=AXIS2_PLACEMENT_3D('',#410,#311,#312);
#254=AXIS2_PLACEMENT_3D('',#412,#313,#314);
#255=AXIS2_PLACEMENT_3D('',#413,#315,#316);
#256=AXIS2_PLACEMENT_3D('',#414,#317,#318);
#257=AXIS2_PLACEMENT_3D('',#415,#319,#320);
#258=AXIS2_PLACEMENT_3D('',#419,#322,#323);
#259=AXIS2_PLACEMENT_3D('',#420,#324,#325);
#260=AXIS2_PLACEMENT_3D('',#421,#326,#327);
#261=AXIS2_PLACEMENT_3D('',#423,#328,#329);
#262=AXIS2_PLACEMENT_3D('',#425,#331,#332);
#263=AXIS2_PLACEMENT_3D('',#427,#333,#334);
#264=AXIS2_PLACEMENT_3D('',#429,#335,#336);
#265=AXIS2_PLACEMENT_3D('',#430,#337,#338);
#266=AXIS2_PLACEMENT_3D('',#431,#339,#340);
#267=AXIS2_PLACEMENT_3D('',#434,#342,#343);
#268=AXIS2_PLACEMENT_3D('',#435,#344,#345);
#269=AXIS2_PLACEMENT_3D('',#436,#346,#347);
#270=DIRECTION('axis',(0.,0.,1.));
#271=DIRECTION('refdir',(1.,0.,0.));
#272=DIRECTION('center_axis',(1.,6.30855792808653E-34,0.));
#273=DIRECTION('ref_axis',(0.,0.,-1.));
#274=DIRECTION('center_axis',(-1.,0.,0.));
#275=DIRECTION('ref_axis',(0.,-1.,3.06161699786838E-17));
#276=DIRECTION('center_axis',(-1.,0.,0.));
#277=DIRECTION('ref_axis',(0.,-1.,3.06161699786838E-17));
#278=DIRECTION('center_axis',(6.30855792808653E-34,-1.,-1.22464679914735E-16));
#279=DIRECTION('ref_axis',(0.,-1.22464679914735E-16,1.));
#280=DIRECTION('center_axis',(1.,6.30855792808653E-34,0.));
#281=DIRECTION('ref_axis',(0.,-1.,1.83697019872103E-16));
#282=DIRECTION('center_axis',(1.,6.30855792808653E-34,0.));
#283=DIRECTION('ref_axis',(0.,-1.,1.83697019872103E-16));
#284=DIRECTION('center_axis',(-1.,-6.30855792808653E-34,0.));
#285=DIRECTION('ref_axis',(0.,1.,0.));
#286=DIRECTION('',(-0.988936352868298,-0.148340452930245,-1.81664660865093E-17));
#287=DIRECTION('center_axis',(1.,0.,0.));
#288=DIRECTION('ref_axis',(0.,-1.,3.06161699786838E-17));
#289=DIRECTION('center_axis',(1.,0.,0.));
#290=DIRECTION('ref_axis',(0.,-1.,3.06161699786838E-17));
#291=DIRECTION('center_axis',(1.,6.30855792808653E-34,0.));
#292=DIRECTION('ref_axis',(0.,1.,0.));
#293=DIRECTION('center_axis',(1.,6.30855792808653E-34,0.));
#294=DIRECTION('ref_axis',(0.,0.,-1.));
#295=DIRECTION('',(-1.,-6.30855792808653E-34,0.));
#296=DIRECTION('center_axis',(6.30855792808653E-34,-1.,-1.22464679914735E-16));
#297=DIRECTION('ref_axis',(0.,-1.22464679914735E-16,1.));
#298=DIRECTION('center_axis',(-1.,-6.30855792808653E-34,0.));
#299=DIRECTION('ref_axis',(0.,-1.,1.83697019872103E-16));
#300=DIRECTION('center_axis',(-1.,-6.30855792808653E-34,0.));
#301=DIRECTION('ref_axis',(0.,-1.,1.83697019872103E-16));
#302=DIRECTION('center_axis',(1.,6.30855792808653E-34,0.));
#303=DIRECTION('ref_axis',(0.,1.,0.));
#304=DIRECTION('',(-1.,-6.30855792808653E-34,0.));
#305=DIRECTION('center_axis',(1.,6.30855792808653E-34,0.));
#306=DIRECTION('ref_axis',(0.,0.,-1.));
#307=DIRECTION('center_axis',(1.,6.30855792808653E-34,0.));
#308=DIRECTION('ref_axis',(0.,0.,-1.));
#309=DIRECTION('center_axis',(1.,0.,0.));
#310=DIRECTION('ref_axis',(0.,-1.,3.06161699786839E-17));
#311=DIRECTION('center_axis',(6.30855792808653E-34,-1.,-1.22464679914735E-16));
#312=DIRECTION('ref_axis',(0.,-1.22464679914735E-16,1.));
#313=DIRECTION('center_axis',(-1.,-6.30855792808653E-34,0.));
#314=DIRECTION('ref_axis',(0.,-1.,1.83697019872103E-16));
#315=DIRECTION('center_axis',(-1.,-6.30855792808653E-34,0.));
#316=DIRECTION('ref_axis',(0.,-1.,1.83697019872103E-16));
#317=DIRECTION('center_axis',(1.,0.,0.));
#318=DIRECTION('ref_axis',(0.,-1.,3.06161699786839E-17));
#319=DIRECTION('center_axis',(-1.,-6.30855792808653E-34,0.));
#320=DIRECTION('ref_axis',(0.,1.,0.));
#321=DIRECTION('',(-0.988936352868298,-0.148340452930245,-1.81664660865093E-17));
#322=DIRECTION('center_axis',(-1.,0.,0.));
#323=DIRECTION('ref_axis',(0.,-1.,3.06161699786838E-17));
#324=DIRECTION('center_axis',(-1.,0.,0.));
#325=DIRECTION('ref_axis',(0.,-1.,3.06161699786838E-17));
#326=DIRECTION('center_axis',(1.,6.30855792808653E-34,0.));
#327=DIRECTION('ref_axis',(0.,1.,0.));
#328=DIRECTION('center_axis',(1.,6.30855792808653E-34,0.));
#329=DIRECTION('ref_axis',(0.,0.,-1.));
#330=DIRECTION('',(-1.,-6.30855792808653E-34,0.));
#331=DIRECTION('center_axis',(1.,6.30855792808653E-34,0.));
#332=DIRECTION('ref_axis',(0.,0.,-1.));
#333=DIRECTION('center_axis',(6.30855792808653E-34,-1.,-1.22464679914735E-16));
#334=DIRECTION('ref_axis',(0.,-1.22464679914735E-16,1.));
#335=DIRECTION('center_axis',(1.,6.30855792808653E-34,0.));
#336=DIRECTION('ref_axis',(0.,-1.,1.83697019872103E-16));
#337=DIRECTION('center_axis',(1.,6.30855792808653E-34,0.));
#338=DIRECTION('ref_axis',(0.,-1.,1.83697019872103E-16));
#339=DIRECTION('center_axis',(1.,6.30855792808653E-34,0.));
#340=DIRECTION('ref_axis',(0.,1.,0.));
#341=DIRECTION('',(-1.,-6.30855792808653E-34,0.));
#342=DIRECTION('center_axis',(1.,6.30855792808653E-34,0.));
#343=DIRECTION('ref_axis',(0.,0.,-1.));
#344=DIRECTION('center_axis',(1.,6.30855792808653E-34,0.));
#345=DIRECTION('ref_axis',(0.,0.,-1.));
#346=DIRECTION('center_axis',(-1.,-6.30855792808653E-34,0.));
#347=DIRECTION('ref_axis',(0.,0.,1.));
#348=CARTESIAN_POINT('',(0.,0.,0.));
#349=CARTESIAN_POINT('Origin',(1.39245532849938,8.78438510211112E-34,0.));
#350=CARTESIAN_POINT('',(1.35537021526682,-3.83027772747363E-17,0.312765911782925));
#351=CARTESIAN_POINT('',(1.35537021526682,-0.312765911782926,-3.83027772747363E-17));
#352=CARTESIAN_POINT('Origin',(1.35537021526682,0.,-4.78784715934204E-17));
#353=CARTESIAN_POINT('Origin',(1.35537021526682,0.,-4.78784715934204E-17));
#354=CARTESIAN_POINT('',(1.39245532849938,-3.79640507735679E-17,0.31));
#355=CARTESIAN_POINT('Origin',(1.39245532849938,-6.85802207522518E-17,0.56));
#356=CARTESIAN_POINT('',(1.39245532849938,-0.31,-3.79640507735679E-17));
#357=CARTESIAN_POINT('Origin',(1.39245532849938,8.78438510211112E-34,0.));
#358=CARTESIAN_POINT('Origin',(1.39245532849938,8.78438510211112E-34,0.));
#359=CARTESIAN_POINT('Origin',(0.933809627152994,5.89099212669954E-34,0.));
#360=CARTESIAN_POINT('',(0.512249039039165,-0.439234088217075,-5.37906620211447E-17));
#361=CARTESIAN_POINT('',(0.933809627152994,-0.376,-4.60467196479405E-17));
#362=CARTESIAN_POINT('',(0.512249039039165,-5.37906620211447E-17,0.439234088217075));
#363=CARTESIAN_POINT('Origin',(0.512249039039165,0.,-6.72383275264308E-17));
#364=CARTESIAN_POINT('Origin',(0.512249039039165,0.,-6.72383275264308E-17));
#365=CARTESIAN_POINT('Origin',(1.6869048135765,1.06419367356153E-33,0.));
#366=CARTESIAN_POINT('',(2.,-0.31,-3.79640507735679E-17));
#367=CARTESIAN_POINT('Origin',(2.,1.26171158561731E-33,0.));
#368=CARTESIAN_POINT('',(1.6869048135765,-0.31,-3.79640507735679E-17));
#369=CARTESIAN_POINT('Ctrl Pts',(0.475163925806604,2.99759915128797E-34,
0.442));
#370=CARTESIAN_POINT('Ctrl Pts',(0.475163925806604,-0.442,0.442));
#371=CARTESIAN_POINT('Ctrl Pts',(0.475163925806604,-0.442,0.));
#372=CARTESIAN_POINT('Ctrl Pts',(0.475163925806604,-0.442,-0.442));
#373=CARTESIAN_POINT('Ctrl Pts',(0.475163925806604,2.99759915128797E-34,
-0.442));
#374=CARTESIAN_POINT('Ctrl Pts',(0.475163925806604,0.442,-0.442));
#375=CARTESIAN_POINT('Ctrl Pts',(0.475163925806604,0.442,0.));
#376=CARTESIAN_POINT('Ctrl Pts',(0.475163925806604,0.442,0.442));
#377=CARTESIAN_POINT('Ctrl Pts',(0.475163925806604,2.99759915128797E-34,
0.442));
#378=CARTESIAN_POINT('Ctrl Pts',(0.493809627152994,3.11522663834147E-34,
0.442));
#379=CARTESIAN_POINT('Ctrl Pts',(0.493809627152994,-0.442,0.442));
#380=CARTESIAN_POINT('Ctrl Pts',(0.493809627152994,-0.442,6.73452525377561E-50));
#381=CARTESIAN_POINT('Ctrl Pts',(0.493809627152994,-0.442,-0.442));
#382=CARTESIAN_POINT('Ctrl Pts',(0.493809627152994,3.11522663834147E-34,
-0.442));
#383=CARTESIAN_POINT('Ctrl Pts',(0.493809627152994,0.442,-0.442));
#384=CARTESIAN_POINT('Ctrl Pts',(0.493809627152994,0.442,-6.73452525377561E-50));
#385=CARTESIAN_POINT('Ctrl Pts',(0.493809627152994,0.442,0.442));
#386=CARTESIAN_POINT('Ctrl Pts',(0.493809627152994,3.11522663834147E-34,
0.442));
#387=CARTESIAN_POINT('Ctrl Pts',(0.512249039039165,3.23155273638523E-34,
0.439234088217075));
#388=CARTESIAN_POINT('Ctrl Pts',(0.512249039039165,-0.439234088217075,0.439234088217075));
#389=CARTESIAN_POINT('Ctrl Pts',(0.512249039039165,-0.439234088217075,0.));
#390=CARTESIAN_POINT('Ctrl Pts',(0.512249039039165,-0.439234088217075,-0.439234088217075));
#391=CARTESIAN_POINT('Ctrl Pts',(0.512249039039165,3.23155273638523E-34,
-0.439234088217075));
#392=CARTESIAN_POINT('Ctrl Pts',(0.512249039039165,0.439234088217075,-0.439234088217075));
#393=CARTESIAN_POINT('Ctrl Pts',(0.512249039039165,0.439234088217075,0.));
#394=CARTESIAN_POINT('Ctrl Pts',(0.512249039039165,0.439234088217075,0.439234088217075));
#395=CARTESIAN_POINT('Ctrl Pts',(0.512249039039165,3.23155273638523E-34,
0.439234088217075));
#396=CARTESIAN_POINT('',(0.475163925806604,-5.4129388522313E-17,0.442));
#397=CARTESIAN_POINT('Origin',(0.475163925806604,-2.35132185436292E-17,
0.192));
#398=CARTESIAN_POINT('',(0.475163925806604,-0.442,-5.4129388522313E-17));
#399=CARTESIAN_POINT('Origin',(0.475163925806604,2.99759915128797E-34,0.));
#400=CARTESIAN_POINT('Origin',(0.475163925806604,2.99759915128797E-34,0.));
#401=CARTESIAN_POINT('Origin',(0.246904813576497,1.55761331917074E-34,0.));
#402=CARTESIAN_POINT('',(-1.31128703695885E-16,-0.442,-5.4129388522313E-17));
#403=CARTESIAN_POINT('',(0.246904813576497,-0.442,-5.4129388522313E-17));
#404=CARTESIAN_POINT('Origin',(-8.74191357972564E-17,-5.51488682200255E-50,
0.));
#405=CARTESIAN_POINT('Origin',(1.51864570134639,9.5804643791833E-34,0.));
#406=CARTESIAN_POINT('',(1.48156058811383,-0.377765911782925,-4.62629814691941E-17));
#407=CARTESIAN_POINT('',(1.48156058811383,-4.62629814691941E-17,0.377765911782925));
#408=CARTESIAN_POINT('Origin',(1.48156058811383,0.,-5.78287268364926E-17));
#409=CARTESIAN_POINT('',(1.51864570134639,-4.59242549680257E-17,0.375));
#410=CARTESIAN_POINT('Origin',(1.51864570134639,-7.65404249467096E-17,0.625));
#411=CARTESIAN_POINT('',(1.51864570134639,-0.375,-4.59242549680257E-17));
#412=CARTESIAN_POINT('Origin',(1.51864570134639,9.5804643791833E-34,0.));
#413=CARTESIAN_POINT('Origin',(1.51864570134639,9.5804643791833E-34,0.));
#414=CARTESIAN_POINT('Origin',(1.48156058811383,0.,-5.78287268364926E-17));
#415=CARTESIAN_POINT('Origin',(1.,6.30855792808653E-34,0.));
#416=CARTESIAN_POINT('',(0.518439411886171,-0.522234088217075,-6.39552304540677E-17));
#417=CARTESIAN_POINT('',(1.,-0.45,-5.51091059616309E-17));
#418=CARTESIAN_POINT('',(0.518439411886171,-6.39552304540677E-17,0.522234088217075));
#419=CARTESIAN_POINT('Origin',(0.518439411886171,0.,-7.99440380675846E-17));
#420=CARTESIAN_POINT('Origin',(0.518439411886171,0.,-7.99440380675846E-17));
#421=CARTESIAN_POINT('Origin',(1.75,1.10399763741514E-33,0.));
#422=CARTESIAN_POINT('',(2.,-0.375,-4.59242549680257E-17));
#423=CARTESIAN_POINT('Origin',(2.,1.26171158561731E-33,0.));
#424=CARTESIAN_POINT('',(1.75,-0.375,-4.59242549680257E-17));
#425=CARTESIAN_POINT('Origin',(0.48135429865361,3.03665147698976E-34,0.));
#426=CARTESIAN_POINT('',(0.48135429865361,-6.42939569552361E-17,0.525));
#427=CARTESIAN_POINT('Origin',(0.48135429865361,-3.36777869765522E-17,0.275));
#428=CARTESIAN_POINT('',(0.48135429865361,-0.525,-6.42939569552361E-17));
#429=CARTESIAN_POINT('Origin',(0.48135429865361,3.03665147698976E-34,0.));
#430=CARTESIAN_POINT('Origin',(0.48135429865361,3.03665147698976E-34,0.));
#431=CARTESIAN_POINT('Origin',(0.25,1.57713948202163E-34,0.));
#432=CARTESIAN_POINT('',(-8.74191357972564E-17,-0.525,-6.42939569552361E-17));
#433=CARTESIAN_POINT('',(0.25,-0.525,-6.42939569552361E-17));
#434=CARTESIAN_POINT('Origin',(-8.74191357972564E-17,-5.51488682200255E-50,
0.));
#435=CARTESIAN_POINT('Origin',(2.,0.31,0.));
#436=CARTESIAN_POINT('Origin',(-8.74191357972564E-17,0.525,0.));
#437=UNCERTAINTY_MEASURE_WITH_UNIT(LENGTH_MEASURE(0.000393700787401575),
#443,'DISTANCE_ACCURACY_VALUE',
'Maximum model space distance between geometric entities at asserted c
onnectivities');
#438=UNCERTAINTY_MEASURE_WITH_UNIT(LENGTH_MEASURE(0.000393700787401575),
#443,'DISTANCE_ACCURACY_VALUE',
'Maximum model space distance between geometric entities at asserted c
onnectivities');
#439=(
GEOMETRIC_REPRESENTATION_CONTEXT(3)
GLOBAL_UNCERTAINTY_ASSIGNED_CONTEXT((#437))
GLOBAL_UNIT_ASSIGNED_CONTEXT((#443,#447,#448))
REPRESENTATION_CONTEXT('','3D')
);
#440=(
GEOMETRIC_REPRESENTATION_CONTEXT(3)
GLOBAL_UNCERTAINTY_ASSIGNED_CONTEXT((#438))
GLOBAL_UNIT_ASSIGNED_CONTEXT((#443,#447,#448))
REPRESENTATION_CONTEXT('','3D')
);
#441=DIMENSIONAL_EXPONENTS(1.,0.,0.,0.,0.,0.,0.);
#442=DIMENSIONAL_EXPONENTS(0.,1.,0.,0.,0.,0.,0.);
#443=(
CONVERSION_BASED_UNIT('inch',#446)
LENGTH_UNIT()
NAMED_UNIT(#441)
);
#444=(
LENGTH_UNIT()
NAMED_UNIT(*)
SI_UNIT(.MILLI.,.METRE.)
);
#445=(
LENGTH_UNIT()
NAMED_UNIT(*)
SI_UNIT(.CENTI.,.METRE.)
);
#446=LENGTH_MEASURE_WITH_UNIT(LENGTH_MEASURE(25.4),#444);
#447=(
NAMED_UNIT(*)
PLANE_ANGLE_UNIT()
SI_UNIT($,.RADIAN.)
);
#448=(
NAMED_UNIT(*)
SI_UNIT($,.STERADIAN.)
SOLID_ANGLE_UNIT()
);
#449=SHAPE_DEFINITION_REPRESENTATION(#450,#451);
#450=PRODUCT_DEFINITION_SHAPE('',$,#453);
#451=SHAPE_REPRESENTATION('',(#234),#439);
#452=PRODUCT_DEFINITION_CONTEXT('part definition',#457,'design');
#453=PRODUCT_DEFINITION('19WX-.75','19WX-.75',#454,#452);
#454=PRODUCT_DEFINITION_FORMATION('',$,#459);
#455=PRODUCT_RELATED_PRODUCT_CATEGORY('19WX-.75','19WX-.75',(#459));
#456=APPLICATION_PROTOCOL_DEFINITION('international standard',
'automotive_design',2009,#457);
#457=APPLICATION_CONTEXT(
'Core Data for Automotive Mechanical Design Process');
#458=PRODUCT_CONTEXT('part definition',#457,'mechanical');
#459=PRODUCT('19WX-.75','19WX-.75',$,(#458));
#460=PRESENTATION_STYLE_ASSIGNMENT((#461));
#461=SURFACE_STYLE_USAGE(.BOTH.,#464);
#462=SURFACE_STYLE_RENDERING_WITH_PROPERTIES($,#468,(#463));
#463=SURFACE_STYLE_TRANSPARENT(0.);
#464=SURFACE_SIDE_STYLE('',(#465,#462));
#465=SURFACE_STYLE_FILL_AREA(#466);
#466=FILL_AREA_STYLE('',(#467));
#467=FILL_AREA_STYLE_COLOUR('',#468);
#468=COLOUR_RGB('',0.749019607843137,0.749019607843137,0.749019607843137);
ENDSEC;
END-ISO-10303-21;
