ISO-10303-21;
HEADER;
/* Generated by software containing ST-Developer
 * from STEP Tools, Inc. (www.steptools.com) 
 */

FILE_DESCRIPTION(
/* description */ (''),
/* implementation_level */ '2;1');

FILE_NAME(
/* name */ '19WX-1.5.stp',
/* time_stamp */ '2025-08-01T11:10:39-04:00',
/* author */ ('brad'),
/* organization */ (''),
/* preprocessor_version */ 'ST-DEVELOPER v20',
/* originating_system */ 'Autodesk Inventor 2025',
/* authorisation */ '');

FILE_SCHEMA (('AUTOMOTIVE_DESIGN { 1 0 10303 214 3 1 1 }'));
ENDSEC;

DATA;
#10=MECHANICAL_DESIGN_GEOMETRIC_PRESENTATION_REPRESENTATION('',(#13),#417);
#11=SHAPE_REPRESENTATION_RELATIONSHIP('SRR','None',#428,#12);
#12=ADVANCED_BREP_SHAPE_REPRESENTATION('',(#14),#416);
#13=STYLED_ITEM('',(#437),#14);
#14=MANIFOLD_SOLID_BREP('Solid1',#213);
#15=FACE_BOUND('',#60,.T.);
#16=FACE_BOUND('',#62,.T.);
#17=PLANE('',#269);
#18=PLANE('',#270);
#19=CYLINDRICAL_SURFACE('',#244,0.685);
#20=CYLINDRICAL_SURFACE('',#250,0.841);
#21=CYLINDRICAL_SURFACE('',#261,0.75);
#22=CYLINDRICAL_SURFACE('',#267,0.95);
#23=LINE('',#364,#29);
#24=LINE('',#371,#30);
#25=LINE('',#380,#31);
#26=LINE('',#394,#32);
#27=LINE('',#401,#33);
#28=LINE('',#410,#34);
#29=VECTOR('',#287,0.763);
#30=VECTOR('',#296,0.685);
#31=VECTOR('',#307,0.841);
#32=VECTOR('',#324,0.85);
#33=VECTOR('',#333,0.75);
#34=VECTOR('',#344,0.95);
#35=CONICAL_SURFACE('',#241,0.763,0.380506377112364);
#36=CONICAL_SURFACE('',#258,0.85,0.380506377112365);
#37=FACE_OUTER_BOUND('',#49,.T.);
#38=FACE_OUTER_BOUND('',#50,.T.);
#39=FACE_OUTER_BOUND('',#51,.T.);
#40=FACE_OUTER_BOUND('',#52,.T.);
#41=FACE_OUTER_BOUND('',#53,.T.);
#42=FACE_OUTER_BOUND('',#54,.T.);
#43=FACE_OUTER_BOUND('',#55,.T.);
#44=FACE_OUTER_BOUND('',#56,.T.);
#45=FACE_OUTER_BOUND('',#57,.T.);
#46=FACE_OUTER_BOUND('',#58,.T.);
#47=FACE_OUTER_BOUND('',#59,.T.);
#48=FACE_OUTER_BOUND('',#61,.T.);
#49=EDGE_LOOP('',(#137,#138,#139,#140,#141,#142));
#50=EDGE_LOOP('',(#143,#144,#145,#146,#147,#148));
#51=EDGE_LOOP('',(#149,#150,#151,#152,#153));
#52=EDGE_LOOP('',(#154,#155,#156,#157,#158,#159));
#53=EDGE_LOOP('',(#160,#161,#162,#163,#164));
#54=EDGE_LOOP('',(#165,#166,#167,#168,#169,#170));
#55=EDGE_LOOP('',(#171,#172,#173,#174,#175,#176));
#56=EDGE_LOOP('',(#177,#178,#179,#180,#181));
#57=EDGE_LOOP('',(#182,#183,#184,#185,#186,#187));
#58=EDGE_LOOP('',(#188,#189,#190,#191,#192));
#59=EDGE_LOOP('',(#193));
#60=EDGE_LOOP('',(#194));
#61=EDGE_LOOP('',(#195));
#62=EDGE_LOOP('',(#196));
#63=CIRCLE('',#236,0.702880827278685);
#64=CIRCLE('',#237,0.702880827278685);
#65=CIRCLE('',#238,0.25);
#66=CIRCLE('',#239,0.685);
#67=CIRCLE('',#240,0.685);
#68=CIRCLE('',#242,0.823119172721315);
#69=CIRCLE('',#243,0.823119172721315);
#70=CIRCLE('',#245,0.685);
#71=CIRCLE('',#247,0.25);
#72=CIRCLE('',#248,0.841);
#73=CIRCLE('',#249,0.841);
#74=CIRCLE('',#251,0.841);
#75=CIRCLE('',#253,0.767880827278685);
#76=CIRCLE('',#254,0.25);
#77=CIRCLE('',#255,0.75);
#78=CIRCLE('',#256,0.75);
#79=CIRCLE('',#257,0.767880827278685);
#80=CIRCLE('',#259,0.932119172721315);
#81=CIRCLE('',#260,0.932119172721315);
#82=CIRCLE('',#262,0.75);
#83=CIRCLE('',#264,0.25);
#84=CIRCLE('',#265,0.95);
#85=CIRCLE('',#266,0.95);
#86=CIRCLE('',#268,0.95);
#87=VERTEX_POINT('',#353);
#88=VERTEX_POINT('',#354);
#89=VERTEX_POINT('',#357);
#90=VERTEX_POINT('',#359);
#91=VERTEX_POINT('',#363);
#92=VERTEX_POINT('',#365);
#93=VERTEX_POINT('',#369);
#94=VERTEX_POINT('',#373);
#95=VERTEX_POINT('',#375);
#96=VERTEX_POINT('',#379);
#97=VERTEX_POINT('',#383);
#98=VERTEX_POINT('',#384);
#99=VERTEX_POINT('',#386);
#100=VERTEX_POINT('',#388);
#101=VERTEX_POINT('',#393);
#102=VERTEX_POINT('',#395);
#103=VERTEX_POINT('',#399);
#104=VERTEX_POINT('',#403);
#105=VERTEX_POINT('',#405);
#106=VERTEX_POINT('',#409);
#107=EDGE_CURVE('',#87,#88,#63,.T.);
#108=EDGE_CURVE('',#88,#87,#64,.T.);
#109=EDGE_CURVE('',#87,#89,#65,.T.);
#110=EDGE_CURVE('',#89,#90,#66,.T.);
#111=EDGE_CURVE('',#90,#89,#67,.T.);
#112=EDGE_CURVE('',#88,#91,#23,.T.);
#113=EDGE_CURVE('',#92,#91,#68,.T.);
#114=EDGE_CURVE('',#91,#92,#69,.T.);
#115=EDGE_CURVE('',#93,#93,#70,.T.);
#116=EDGE_CURVE('',#93,#90,#24,.T.);
#117=EDGE_CURVE('',#92,#94,#71,.T.);
#118=EDGE_CURVE('',#94,#95,#72,.T.);
#119=EDGE_CURVE('',#95,#94,#73,.T.);
#120=EDGE_CURVE('',#95,#96,#25,.T.);
#121=EDGE_CURVE('',#96,#96,#74,.T.);
#122=EDGE_CURVE('',#97,#98,#75,.T.);
#123=EDGE_CURVE('',#98,#99,#76,.T.);
#124=EDGE_CURVE('',#99,#100,#77,.T.);
#125=EDGE_CURVE('',#100,#99,#78,.T.);
#126=EDGE_CURVE('',#98,#97,#79,.T.);
#127=EDGE_CURVE('',#97,#101,#26,.T.);
#128=EDGE_CURVE('',#102,#101,#80,.T.);
#129=EDGE_CURVE('',#101,#102,#81,.T.);
#130=EDGE_CURVE('',#103,#103,#82,.T.);
#131=EDGE_CURVE('',#103,#100,#27,.T.);
#132=EDGE_CURVE('',#102,#104,#83,.T.);
#133=EDGE_CURVE('',#104,#105,#84,.T.);
#134=EDGE_CURVE('',#105,#104,#85,.T.);
#135=EDGE_CURVE('',#105,#106,#28,.T.);
#136=EDGE_CURVE('',#106,#106,#86,.T.);
#137=ORIENTED_EDGE('',*,*,#107,.T.);
#138=ORIENTED_EDGE('',*,*,#108,.T.);
#139=ORIENTED_EDGE('',*,*,#109,.T.);
#140=ORIENTED_EDGE('',*,*,#110,.T.);
#141=ORIENTED_EDGE('',*,*,#111,.T.);
#142=ORIENTED_EDGE('',*,*,#109,.F.);
#143=ORIENTED_EDGE('',*,*,#107,.F.);
#144=ORIENTED_EDGE('',*,*,#108,.F.);
#145=ORIENTED_EDGE('',*,*,#112,.T.);
#146=ORIENTED_EDGE('',*,*,#113,.F.);
#147=ORIENTED_EDGE('',*,*,#114,.F.);
#148=ORIENTED_EDGE('',*,*,#112,.F.);
#149=ORIENTED_EDGE('',*,*,#115,.T.);
#150=ORIENTED_EDGE('',*,*,#116,.T.);
#151=ORIENTED_EDGE('',*,*,#110,.F.);
#152=ORIENTED_EDGE('',*,*,#111,.F.);
#153=ORIENTED_EDGE('',*,*,#116,.F.);
#154=ORIENTED_EDGE('',*,*,#114,.T.);
#155=ORIENTED_EDGE('',*,*,#117,.T.);
#156=ORIENTED_EDGE('',*,*,#118,.T.);
#157=ORIENTED_EDGE('',*,*,#119,.T.);
#158=ORIENTED_EDGE('',*,*,#117,.F.);
#159=ORIENTED_EDGE('',*,*,#113,.T.);
#160=ORIENTED_EDGE('',*,*,#118,.F.);
#161=ORIENTED_EDGE('',*,*,#119,.F.);
#162=ORIENTED_EDGE('',*,*,#120,.T.);
#163=ORIENTED_EDGE('',*,*,#121,.F.);
#164=ORIENTED_EDGE('',*,*,#120,.F.);
#165=ORIENTED_EDGE('',*,*,#122,.T.);
#166=ORIENTED_EDGE('',*,*,#123,.T.);
#167=ORIENTED_EDGE('',*,*,#124,.T.);
#168=ORIENTED_EDGE('',*,*,#125,.T.);
#169=ORIENTED_EDGE('',*,*,#123,.F.);
#170=ORIENTED_EDGE('',*,*,#126,.T.);
#171=ORIENTED_EDGE('',*,*,#122,.F.);
#172=ORIENTED_EDGE('',*,*,#127,.T.);
#173=ORIENTED_EDGE('',*,*,#128,.F.);
#174=ORIENTED_EDGE('',*,*,#129,.F.);
#175=ORIENTED_EDGE('',*,*,#127,.F.);
#176=ORIENTED_EDGE('',*,*,#126,.F.);
#177=ORIENTED_EDGE('',*,*,#130,.F.);
#178=ORIENTED_EDGE('',*,*,#131,.T.);
#179=ORIENTED_EDGE('',*,*,#124,.F.);
#180=ORIENTED_EDGE('',*,*,#125,.F.);
#181=ORIENTED_EDGE('',*,*,#131,.F.);
#182=ORIENTED_EDGE('',*,*,#128,.T.);
#183=ORIENTED_EDGE('',*,*,#129,.T.);
#184=ORIENTED_EDGE('',*,*,#132,.T.);
#185=ORIENTED_EDGE('',*,*,#133,.T.);
#186=ORIENTED_EDGE('',*,*,#134,.T.);
#187=ORIENTED_EDGE('',*,*,#132,.F.);
#188=ORIENTED_EDGE('',*,*,#134,.F.);
#189=ORIENTED_EDGE('',*,*,#135,.T.);
#190=ORIENTED_EDGE('',*,*,#136,.T.);
#191=ORIENTED_EDGE('',*,*,#135,.F.);
#192=ORIENTED_EDGE('',*,*,#133,.F.);
#193=ORIENTED_EDGE('',*,*,#130,.T.);
#194=ORIENTED_EDGE('',*,*,#115,.F.);
#195=ORIENTED_EDGE('',*,*,#136,.F.);
#196=ORIENTED_EDGE('',*,*,#121,.T.);
#197=TOROIDAL_SURFACE('',#235,0.935,0.25);
#198=TOROIDAL_SURFACE('',#246,0.591,0.25);
#199=TOROIDAL_SURFACE('',#252,1.,0.25);
#200=TOROIDAL_SURFACE('',#263,0.7,0.25);
#201=ADVANCED_FACE('',(#37),#197,.T.);
#202=ADVANCED_FACE('',(#38),#35,.F.);
#203=ADVANCED_FACE('',(#39),#19,.F.);
#204=ADVANCED_FACE('',(#40),#198,.F.);
#205=ADVANCED_FACE('',(#41),#20,.F.);
#206=ADVANCED_FACE('',(#42),#199,.F.);
#207=ADVANCED_FACE('',(#43),#36,.T.);
#208=ADVANCED_FACE('',(#44),#21,.T.);
#209=ADVANCED_FACE('',(#45),#200,.T.);
#210=ADVANCED_FACE('',(#46),#22,.T.);
#211=ADVANCED_FACE('',(#47,#15),#17,.T.);
#212=ADVANCED_FACE('',(#48,#16),#18,.T.);
#213=CLOSED_SHELL('',(#201,#202,#203,#204,#205,#206,#207,#208,#209,#210,
#211,#212));
#214=DERIVED_UNIT_ELEMENT(#216,1.);
#215=DERIVED_UNIT_ELEMENT(#422,-3.);
#216=(
CONVERSION_BASED_UNIT('gram',#218)
MASS_UNIT()
NAMED_UNIT(#419)
);
#217=(
MASS_UNIT()
NAMED_UNIT(*)
SI_UNIT(.KILO.,.GRAM.)
);
#218=MASS_MEASURE_WITH_UNIT(MASS_MEASURE(0.001),#217);
#219=DERIVED_UNIT((#214,#215));
#220=MEASURE_REPRESENTATION_ITEM('density measure',
POSITIVE_RATIO_MEASURE(1.),#219);
#221=PROPERTY_DEFINITION_REPRESENTATION(#226,#223);
#222=PROPERTY_DEFINITION_REPRESENTATION(#227,#224);
#223=REPRESENTATION('material name',(#225),#416);
#224=REPRESENTATION('density',(#220),#416);
#225=DESCRIPTIVE_REPRESENTATION_ITEM('Generic','Generic');
#226=PROPERTY_DEFINITION('material property','material name',#430);
#227=PROPERTY_DEFINITION('material property','density of part',#430);
#228=DATE_TIME_ROLE('creation_date');
#229=APPLIED_DATE_AND_TIME_ASSIGNMENT(#230,#228,(#430));
#230=DATE_AND_TIME(#231,#232);
#231=CALENDAR_DATE(2016,30,3);
#232=LOCAL_TIME(0,0,0.,#233);
#233=COORDINATED_UNIVERSAL_TIME_OFFSET(0,0,.BEHIND.);
#234=AXIS2_PLACEMENT_3D('',#351,#271,#272);
#235=AXIS2_PLACEMENT_3D('',#352,#273,#274);
#236=AXIS2_PLACEMENT_3D('',#355,#275,#276);
#237=AXIS2_PLACEMENT_3D('',#356,#277,#278);
#238=AXIS2_PLACEMENT_3D('',#358,#279,#280);
#239=AXIS2_PLACEMENT_3D('',#360,#281,#282);
#240=AXIS2_PLACEMENT_3D('',#361,#283,#284);
#241=AXIS2_PLACEMENT_3D('',#362,#285,#286);
#242=AXIS2_PLACEMENT_3D('',#366,#288,#289);
#243=AXIS2_PLACEMENT_3D('',#367,#290,#291);
#244=AXIS2_PLACEMENT_3D('',#368,#292,#293);
#245=AXIS2_PLACEMENT_3D('',#370,#294,#295);
#246=AXIS2_PLACEMENT_3D('',#372,#297,#298);
#247=AXIS2_PLACEMENT_3D('',#374,#299,#300);
#248=AXIS2_PLACEMENT_3D('',#376,#301,#302);
#249=AXIS2_PLACEMENT_3D('',#377,#303,#304);
#250=AXIS2_PLACEMENT_3D('',#378,#305,#306);
#251=AXIS2_PLACEMENT_3D('',#381,#308,#309);
#252=AXIS2_PLACEMENT_3D('',#382,#310,#311);
#253=AXIS2_PLACEMENT_3D('',#385,#312,#313);
#254=AXIS2_PLACEMENT_3D('',#387,#314,#315);
#255=AXIS2_PLACEMENT_3D('',#389,#316,#317);
#256=AXIS2_PLACEMENT_3D('',#390,#318,#319);
#257=AXIS2_PLACEMENT_3D('',#391,#320,#321);
#258=AXIS2_PLACEMENT_3D('',#392,#322,#323);
#259=AXIS2_PLACEMENT_3D('',#396,#325,#326);
#260=AXIS2_PLACEMENT_3D('',#397,#327,#328);
#261=AXIS2_PLACEMENT_3D('',#398,#329,#330);
#262=AXIS2_PLACEMENT_3D('',#400,#331,#332);
#263=AXIS2_PLACEMENT_3D('',#402,#334,#335);
#264=AXIS2_PLACEMENT_3D('',#404,#336,#337);
#265=AXIS2_PLACEMENT_3D('',#406,#338,#339);
#266=AXIS2_PLACEMENT_3D('',#407,#340,#341);
#267=AXIS2_PLACEMENT_3D('',#408,#342,#343);
#268=AXIS2_PLACEMENT_3D('',#411,#345,#346);
#269=AXIS2_PLACEMENT_3D('',#412,#347,#348);
#270=AXIS2_PLACEMENT_3D('',#413,#349,#350);
#271=DIRECTION('axis',(0.,0.,1.));
#272=DIRECTION('refdir',(1.,0.,0.));
#273=DIRECTION('center_axis',(1.,5.04684634246922E-34,0.));
#274=DIRECTION('ref_axis',(0.,0.,-1.));
#275=DIRECTION('center_axis',(-1.,0.,0.));
#276=DIRECTION('ref_axis',(0.,-1.,3.06161699786838E-17));
#277=DIRECTION('center_axis',(-1.,0.,0.));
#278=DIRECTION('ref_axis',(0.,-1.,3.06161699786838E-17));
#279=DIRECTION('center_axis',(5.04684634246922E-34,-1.,-1.22464679914735E-16));
#280=DIRECTION('ref_axis',(0.,-1.22464679914735E-16,1.));
#281=DIRECTION('center_axis',(1.,5.04684634246922E-34,0.));
#282=DIRECTION('ref_axis',(0.,-1.,1.83697019872103E-16));
#283=DIRECTION('center_axis',(1.,5.04684634246922E-34,0.));
#284=DIRECTION('ref_axis',(0.,-1.,1.83697019872103E-16));
#285=DIRECTION('center_axis',(-1.,-5.04684634246922E-34,0.));
#286=DIRECTION('ref_axis',(0.,1.,0.));
#287=DIRECTION('',(-0.92847669088526,-0.371390676354103,-4.54822403030223E-17));
#288=DIRECTION('center_axis',(1.,0.,0.));
#289=DIRECTION('ref_axis',(0.,-1.,3.06161699786838E-17));
#290=DIRECTION('center_axis',(1.,0.,0.));
#291=DIRECTION('ref_axis',(0.,-1.,3.06161699786838E-17));
#292=DIRECTION('center_axis',(1.,5.04684634246922E-34,0.));
#293=DIRECTION('ref_axis',(0.,1.,0.));
#294=DIRECTION('center_axis',(1.,5.04684634246922E-34,0.));
#295=DIRECTION('ref_axis',(0.,0.,-1.));
#296=DIRECTION('',(-1.,-5.04684634246922E-34,0.));
#297=DIRECTION('center_axis',(1.,5.04684634246922E-34,0.));
#298=DIRECTION('ref_axis',(0.,0.,-1.));
#299=DIRECTION('center_axis',(5.04684634246922E-34,-1.,-1.22464679914735E-16));
#300=DIRECTION('ref_axis',(0.,-1.22464679914735E-16,1.));
#301=DIRECTION('center_axis',(-1.,-5.04684634246922E-34,0.));
#302=DIRECTION('ref_axis',(0.,-1.,1.83697019872103E-16));
#303=DIRECTION('center_axis',(-1.,-5.04684634246922E-34,0.));
#304=DIRECTION('ref_axis',(0.,-1.,1.83697019872103E-16));
#305=DIRECTION('center_axis',(1.,5.04684634246922E-34,0.));
#306=DIRECTION('ref_axis',(0.,1.,0.));
#307=DIRECTION('',(-1.,-5.04684634246922E-34,0.));
#308=DIRECTION('center_axis',(1.,5.04684634246922E-34,0.));
#309=DIRECTION('ref_axis',(0.,0.,-1.));
#310=DIRECTION('center_axis',(1.,5.04684634246922E-34,0.));
#311=DIRECTION('ref_axis',(0.,0.,-1.));
#312=DIRECTION('center_axis',(1.,0.,0.));
#313=DIRECTION('ref_axis',(0.,-1.,3.06161699786838E-17));
#314=DIRECTION('center_axis',(5.04684634246922E-34,-1.,-1.22464679914735E-16));
#315=DIRECTION('ref_axis',(0.,-1.22464679914735E-16,1.));
#316=DIRECTION('center_axis',(-1.,-5.04684634246922E-34,0.));
#317=DIRECTION('ref_axis',(0.,-1.,1.83697019872103E-16));
#318=DIRECTION('center_axis',(-1.,-5.04684634246922E-34,0.));
#319=DIRECTION('ref_axis',(0.,-1.,1.83697019872103E-16));
#320=DIRECTION('center_axis',(1.,0.,0.));
#321=DIRECTION('ref_axis',(0.,-1.,3.06161699786838E-17));
#322=DIRECTION('center_axis',(-1.,-5.04684634246922E-34,0.));
#323=DIRECTION('ref_axis',(0.,1.,0.));
#324=DIRECTION('',(-0.928476690885259,-0.371390676354104,-4.54822403030224E-17));
#325=DIRECTION('center_axis',(-1.,0.,0.));
#326=DIRECTION('ref_axis',(0.,-1.,3.06161699786838E-17));
#327=DIRECTION('center_axis',(-1.,0.,0.));
#328=DIRECTION('ref_axis',(0.,-1.,3.06161699786838E-17));
#329=DIRECTION('center_axis',(1.,5.04684634246922E-34,0.));
#330=DIRECTION('ref_axis',(0.,1.,0.));
#331=DIRECTION('center_axis',(1.,5.04684634246922E-34,0.));
#332=DIRECTION('ref_axis',(0.,0.,-1.));
#333=DIRECTION('',(-1.,-5.04684634246922E-34,0.));
#334=DIRECTION('center_axis',(1.,5.04684634246922E-34,0.));
#335=DIRECTION('ref_axis',(0.,0.,-1.));
#336=DIRECTION('center_axis',(5.04684634246922E-34,-1.,-1.22464679914735E-16));
#337=DIRECTION('ref_axis',(0.,-1.22464679914735E-16,1.));
#338=DIRECTION('center_axis',(1.,5.04684634246922E-34,0.));
#339=DIRECTION('ref_axis',(0.,-1.,1.83697019872103E-16));
#340=DIRECTION('center_axis',(1.,5.04684634246922E-34,0.));
#341=DIRECTION('ref_axis',(0.,-1.,1.83697019872103E-16));
#342=DIRECTION('center_axis',(1.,5.04684634246922E-34,0.));
#343=DIRECTION('ref_axis',(0.,1.,0.));
#344=DIRECTION('',(-1.,-5.04684634246922E-34,0.));
#345=DIRECTION('center_axis',(1.,5.04684634246922E-34,0.));
#346=DIRECTION('ref_axis',(0.,0.,-1.));
#347=DIRECTION('center_axis',(1.,5.04684634246922E-34,0.));
#348=DIRECTION('ref_axis',(0.,0.,-1.));
#349=DIRECTION('center_axis',(-1.,-5.04684634246922E-34,0.));
#350=DIRECTION('ref_axis',(0.,0.,1.));
#351=CARTESIAN_POINT('',(0.,0.,0.));
#352=CARTESIAN_POINT('Origin',(1.41715411890298,7.15215908170072E-34,0.));
#353=CARTESIAN_POINT('',(1.32430644981446,-8.60780755308885E-17,0.702880827278685));
#354=CARTESIAN_POINT('',(1.32430644981446,-0.702880827278685,-8.60780755308885E-17));
#355=CARTESIAN_POINT('Origin',(1.32430644981446,0.,-1.07597594413611E-16));
#356=CARTESIAN_POINT('Origin',(1.32430644981446,0.,-1.07597594413611E-16));
#357=CARTESIAN_POINT('',(1.41715411890298,-8.38883057415937E-17,0.685));
#358=CARTESIAN_POINT('Origin',(1.41715411890298,-1.14504475720278E-16,0.935));
#359=CARTESIAN_POINT('',(1.41715411890298,-0.685,-8.38883057415937E-17));
#360=CARTESIAN_POINT('Origin',(1.41715411890298,7.15215908170072E-34,0.));
#361=CARTESIAN_POINT('Origin',(1.41715411890298,7.15215908170072E-34,0.));
#362=CARTESIAN_POINT('Origin',(1.17400851801117,5.92504059515239E-34,0.));
#363=CARTESIAN_POINT('',(1.02371058620788,-0.823119172721315,-1.00803026018998E-16));
#364=CARTESIAN_POINT('',(1.17400851801117,-0.763,-9.34405507749431E-17));
#365=CARTESIAN_POINT('',(1.02371058620788,-1.00803026018998E-16,0.823119172721315));
#366=CARTESIAN_POINT('Origin',(1.02371058620788,0.,-1.26003782523747E-16));
#367=CARTESIAN_POINT('Origin',(1.02371058620788,0.,-1.26003782523747E-16));
#368=CARTESIAN_POINT('Origin',(1.93450425900559,9.76314574405347E-34,0.));
#369=CARTESIAN_POINT('',(2.5,-0.685,-8.38883057415937E-17));
#370=CARTESIAN_POINT('Origin',(2.5,1.26171158561731E-33,0.));
#371=CARTESIAN_POINT('',(1.93450425900559,-0.685,-8.38883057415937E-17));
#372=CARTESIAN_POINT('Origin',(0.930862917119357,4.69792210860406E-34,0.));
#373=CARTESIAN_POINT('',(0.930862917119357,-1.02992795808292E-16,0.841));
#374=CARTESIAN_POINT('Origin',(0.930862917119357,-7.23766258296086E-17,
0.591));
#375=CARTESIAN_POINT('',(0.930862917119357,-0.841,-1.02992795808292E-16));
#376=CARTESIAN_POINT('Origin',(0.930862917119357,4.69792210860406E-34,0.));
#377=CARTESIAN_POINT('Origin',(0.930862917119357,4.69792210860406E-34,0.));
#378=CARTESIAN_POINT('Origin',(0.489504259005585,2.47045277918544E-34,0.));
#379=CARTESIAN_POINT('',(-1.74838271594513E-16,-0.841,-1.02992795808292E-16));
#380=CARTESIAN_POINT('',(0.489504259005585,-0.841,-1.02992795808292E-16));
#381=CARTESIAN_POINT('Origin',(-1.74838271594513E-16,-8.82381891520407E-50,
0.));
#382=CARTESIAN_POINT('Origin',(1.54814560089181,7.81325296347066E-34,0.));
#383=CARTESIAN_POINT('',(1.45529793180329,-0.767880827278685,-9.40382797253464E-17));
#384=CARTESIAN_POINT('',(1.45529793180329,-9.40382797253464E-17,0.767880827278685));
#385=CARTESIAN_POINT('Origin',(1.45529793180329,0.,-1.17547849656683E-16));
#386=CARTESIAN_POINT('',(1.54814560089181,-9.18485099360515E-17,0.75));
#387=CARTESIAN_POINT('Origin',(1.54814560089181,-1.22464679914735E-16,1.));
#388=CARTESIAN_POINT('',(1.54814560089181,-0.75,-9.18485099360515E-17));
#389=CARTESIAN_POINT('Origin',(1.54814560089181,7.81325296347066E-34,0.));
#390=CARTESIAN_POINT('Origin',(1.54814560089181,7.81325296347066E-34,0.));
#391=CARTESIAN_POINT('Origin',(1.45529793180329,0.,-1.17547849656683E-16));
#392=CARTESIAN_POINT('Origin',(1.25,6.30855792808653E-34,0.));
#393=CARTESIAN_POINT('',(1.04470206819671,-0.932119172721315,-1.14151676129704E-16));
#394=CARTESIAN_POINT('',(1.25,-0.85,-1.04094977927525E-16));
#395=CARTESIAN_POINT('',(1.04470206819671,-1.14151676129704E-16,0.932119172721315));
#396=CARTESIAN_POINT('Origin',(1.04470206819671,0.,-1.4268959516213E-16));
#397=CARTESIAN_POINT('Origin',(1.04470206819671,0.,-1.4268959516213E-16));
#398=CARTESIAN_POINT('Origin',(2.,1.00936926849384E-33,0.));
#399=CARTESIAN_POINT('',(2.5,-0.75,-9.18485099360515E-17));
#400=CARTESIAN_POINT('Origin',(2.5,1.26171158561731E-33,0.));
#401=CARTESIAN_POINT('',(2.,-0.75,-9.18485099360515E-17));
#402=CARTESIAN_POINT('Origin',(0.951854399108187,4.80386289270239E-34,0.));
#403=CARTESIAN_POINT('',(0.951854399108187,-1.16341445918999E-16,0.95));
#404=CARTESIAN_POINT('Origin',(0.951854399108187,-8.57252759403147E-17,
0.7));
#405=CARTESIAN_POINT('',(0.951854399108187,-0.95,-1.16341445918999E-16));
#406=CARTESIAN_POINT('Origin',(0.951854399108187,4.80386289270239E-34,0.));
#407=CARTESIAN_POINT('Origin',(0.951854399108187,4.80386289270239E-34,0.));
#408=CARTESIAN_POINT('Origin',(0.5,2.52342317123461E-34,0.));
#409=CARTESIAN_POINT('',(-1.74838271594513E-16,-0.95,-1.16341445918999E-16));
#410=CARTESIAN_POINT('',(0.5,-0.95,-1.16341445918999E-16));
#411=CARTESIAN_POINT('Origin',(-1.74838271594513E-16,-8.82381891520407E-50,
0.));
#412=CARTESIAN_POINT('Origin',(2.5,0.685,0.));
#413=CARTESIAN_POINT('Origin',(-1.74838271594513E-16,0.95,0.));
#414=UNCERTAINTY_MEASURE_WITH_UNIT(LENGTH_MEASURE(0.000393700787401575),
#420,'DISTANCE_ACCURACY_VALUE',
'Maximum model space distance between geometric entities at asserted c
onnectivities');
#415=UNCERTAINTY_MEASURE_WITH_UNIT(LENGTH_MEASURE(0.000393700787401575),
#420,'DISTANCE_ACCURACY_VALUE',
'Maximum model space distance between geometric entities at asserted c
onnectivities');
#416=(
GEOMETRIC_REPRESENTATION_CONTEXT(3)
GLOBAL_UNCERTAINTY_ASSIGNED_CONTEXT((#414))
GLOBAL_UNIT_ASSIGNED_CONTEXT((#420,#424,#425))
REPRESENTATION_CONTEXT('','3D')
);
#417=(
GEOMETRIC_REPRESENTATION_CONTEXT(3)
GLOBAL_UNCERTAINTY_ASSIGNED_CONTEXT((#415))
GLOBAL_UNIT_ASSIGNED_CONTEXT((#420,#424,#425))
REPRESENTATION_CONTEXT('','3D')
);
#418=DIMENSIONAL_EXPONENTS(1.,0.,0.,0.,0.,0.,0.);
#419=DIMENSIONAL_EXPONENTS(0.,1.,0.,0.,0.,0.,0.);
#420=(
CONVERSION_BASED_UNIT('inch',#423)
LENGTH_UNIT()
NAMED_UNIT(#418)
);
#421=(
LENGTH_UNIT()
NAMED_UNIT(*)
SI_UNIT(.MILLI.,.METRE.)
);
#422=(
LENGTH_UNIT()
NAMED_UNIT(*)
SI_UNIT(.CENTI.,.METRE.)
);
#423=LENGTH_MEASURE_WITH_UNIT(LENGTH_MEASURE(25.4),#421);
#424=(
NAMED_UNIT(*)
PLANE_ANGLE_UNIT()
SI_UNIT($,.RADIAN.)
);
#425=(
NAMED_UNIT(*)
SI_UNIT($,.STERADIAN.)
SOLID_ANGLE_UNIT()
);
#426=SHAPE_DEFINITION_REPRESENTATION(#427,#428);
#427=PRODUCT_DEFINITION_SHAPE('',$,#430);
#428=SHAPE_REPRESENTATION('',(#234),#416);
#429=PRODUCT_DEFINITION_CONTEXT('part definition',#434,'design');
#430=PRODUCT_DEFINITION('19WX-1.5','19WX-1.5',#431,#429);
#431=PRODUCT_DEFINITION_FORMATION('',$,#436);
#432=PRODUCT_RELATED_PRODUCT_CATEGORY('19WX-1.5','19WX-1.5',(#436));
#433=APPLICATION_PROTOCOL_DEFINITION('international standard',
'automotive_design',2009,#434);
#434=APPLICATION_CONTEXT(
'Core Data for Automotive Mechanical Design Process');
#435=PRODUCT_CONTEXT('part definition',#434,'mechanical');
#436=PRODUCT('19WX-1.5','19WX-1.5',$,(#435));
#437=PRESENTATION_STYLE_ASSIGNMENT((#438));
#438=SURFACE_STYLE_USAGE(.BOTH.,#441);
#439=SURFACE_STYLE_RENDERING_WITH_PROPERTIES($,#445,(#440));
#440=SURFACE_STYLE_TRANSPARENT(0.);
#441=SURFACE_SIDE_STYLE('',(#442,#439));
#442=SURFACE_STYLE_FILL_AREA(#443);
#443=FILL_AREA_STYLE('',(#444));
#444=FILL_AREA_STYLE_COLOUR('',#445);
#445=COLOUR_RGB('',0.749019607843137,0.749019607843137,0.749019607843137);
ENDSEC;
END-ISO-10303-21;
