ISO-10303-21;
HEADER;
/* Generated by software containing ST-Developer
 * from STEP Tools, Inc. (www.steptools.com) 
 */

FILE_DESCRIPTION(
/* description */ (''),
/* implementation_level */ '2;1');

FILE_NAME(
/* name */ 
'W:\\AUTOCAD\\AutoCad - Projects\\Numbered\\19WX\\STEP FILES\\19WX-2.5.
stp',
/* time_stamp */ '2021-09-01T16:43:14-04:00',
/* author */ ('rick'),
/* organization */ (''),
/* preprocessor_version */ 'ST-DEVELOPER v18',
/* originating_system */ 'Autodesk Inventor 2020',
/* authorisation */ '');

FILE_SCHEMA (('AUTOMOTIVE_DESIGN { 1 0 10303 214 3 1 1 }','PROCESS_PLANNING_SCHEMA'));
ENDSEC;

DATA;
#10=MECHANICAL_DESIGN_GEOMETRIC_PRESENTATION_REPRESENTATION('',(#13),#535);
#11=SHAPE_REPRESENTATION_RELATIONSHIP('SRR','None',#545,#12);
#12=ADVANCED_BREP_SHAPE_REPRESENTATION('',(#14),#534);
#13=STYLED_ITEM('',(#554),#14);
#14=MANIFOLD_SOLID_BREP('Solid1',#273);
#15=FACE_BOUND('',#60,.T.);
#16=FACE_BOUND('',#62,.T.);
#17=PLANE('',#339);
#18=PLANE('',#340);
#19=CYLINDRICAL_SURFACE('',#305,1.185);
#20=CYLINDRICAL_SURFACE('',#313,1.3175);
#21=CYLINDRICAL_SURFACE('',#328,1.25);
#22=CYLINDRICAL_SURFACE('',#336,1.4375);
#23=LINE('',#462,#29);
#24=LINE('',#472,#30);
#25=LINE('',#484,#31);
#26=LINE('',#504,#32);
#27=LINE('',#515,#33);
#28=LINE('',#526,#34);
#29=VECTOR('',#361,1.25125);
#30=VECTOR('',#372,1.185);
#31=VECTOR('',#387,1.3175);
#32=VECTOR('',#410,1.34375);
#33=VECTOR('',#423,1.25);
#34=VECTOR('',#436,1.4375);
#35=CONICAL_SURFACE('',#301,1.25125,0.124354994546761);
#36=CONICAL_SURFACE('',#324,1.34375,0.124354994546761);
#37=FACE_OUTER_BOUND('',#49,.T.);
#38=FACE_OUTER_BOUND('',#50,.T.);
#39=FACE_OUTER_BOUND('',#51,.T.);
#40=FACE_OUTER_BOUND('',#52,.T.);
#41=FACE_OUTER_BOUND('',#53,.T.);
#42=FACE_OUTER_BOUND('',#54,.T.);
#43=FACE_OUTER_BOUND('',#55,.T.);
#44=FACE_OUTER_BOUND('',#56,.T.);
#45=FACE_OUTER_BOUND('',#57,.T.);
#46=FACE_OUTER_BOUND('',#58,.T.);
#47=FACE_OUTER_BOUND('',#59,.T.);
#48=FACE_OUTER_BOUND('',#61,.T.);
#49=EDGE_LOOP('',(#173,#174,#175,#176,#177,#178,#179,#180));
#50=EDGE_LOOP('',(#181,#182,#183,#184,#185,#186,#187,#188));
#51=EDGE_LOOP('',(#189,#190,#191,#192,#193,#194,#195));
#52=EDGE_LOOP('',(#196,#197,#198,#199,#200,#201,#202,#203));
#53=EDGE_LOOP('',(#204,#205,#206,#207,#208,#209,#210));
#54=EDGE_LOOP('',(#211,#212,#213,#214,#215,#216,#217,#218));
#55=EDGE_LOOP('',(#219,#220,#221,#222,#223,#224,#225,#226));
#56=EDGE_LOOP('',(#227,#228,#229,#230,#231,#232,#233));
#57=EDGE_LOOP('',(#234,#235,#236,#237,#238,#239,#240,#241));
#58=EDGE_LOOP('',(#242,#243,#244,#245,#246,#247,#248));
#59=EDGE_LOOP('',(#249,#250));
#60=EDGE_LOOP('',(#251,#252));
#61=EDGE_LOOP('',(#253,#254));
#62=EDGE_LOOP('',(#255,#256));
#63=CIRCLE('',#294,1.18693053082158);
#64=CIRCLE('',#295,1.18693053082158);
#65=CIRCLE('',#296,0.25);
#66=CIRCLE('',#297,1.185);
#67=CIRCLE('',#298,1.185);
#68=CIRCLE('',#299,1.185);
#69=CIRCLE('',#300,1.18693053082158);
#70=CIRCLE('',#302,1.31556946917842);
#71=CIRCLE('',#303,1.31556946917842);
#72=CIRCLE('',#304,1.31556946917842);
#73=CIRCLE('',#306,1.185);
#74=CIRCLE('',#307,1.185);
#75=CIRCLE('',#309,0.25);
#76=CIRCLE('',#310,1.3175);
#77=CIRCLE('',#311,1.3175);
#78=CIRCLE('',#312,1.3175);
#79=CIRCLE('',#314,1.3175);
#80=CIRCLE('',#315,1.3175);
#81=CIRCLE('',#317,1.25193053082158);
#82=CIRCLE('',#318,0.25);
#83=CIRCLE('',#319,1.25);
#84=CIRCLE('',#320,1.25);
#85=CIRCLE('',#321,1.25);
#86=CIRCLE('',#322,1.25193053082158);
#87=CIRCLE('',#323,1.25193053082158);
#88=CIRCLE('',#325,1.43556946917842);
#89=CIRCLE('',#326,1.43556946917842);
#90=CIRCLE('',#327,1.43556946917842);
#91=CIRCLE('',#329,1.25);
#92=CIRCLE('',#330,1.25);
#93=CIRCLE('',#332,0.25);
#94=CIRCLE('',#333,1.4375);
#95=CIRCLE('',#334,1.4375);
#96=CIRCLE('',#335,1.4375);
#97=CIRCLE('',#337,1.4375);
#98=CIRCLE('',#338,1.4375);
#99=VERTEX_POINT('',#447);
#100=VERTEX_POINT('',#448);
#101=VERTEX_POINT('',#450);
#102=VERTEX_POINT('',#452);
#103=VERTEX_POINT('',#454);
#104=VERTEX_POINT('',#456);
#105=VERTEX_POINT('',#461);
#106=VERTEX_POINT('',#463);
#107=VERTEX_POINT('',#465);
#108=VERTEX_POINT('',#469);
#109=VERTEX_POINT('',#470);
#110=VERTEX_POINT('',#475);
#111=VERTEX_POINT('',#477);
#112=VERTEX_POINT('',#479);
#113=VERTEX_POINT('',#483);
#114=VERTEX_POINT('',#485);
#115=VERTEX_POINT('',#489);
#116=VERTEX_POINT('',#490);
#117=VERTEX_POINT('',#492);
#118=VERTEX_POINT('',#494);
#119=VERTEX_POINT('',#496);
#120=VERTEX_POINT('',#499);
#121=VERTEX_POINT('',#503);
#122=VERTEX_POINT('',#505);
#123=VERTEX_POINT('',#507);
#124=VERTEX_POINT('',#511);
#125=VERTEX_POINT('',#512);
#126=VERTEX_POINT('',#517);
#127=VERTEX_POINT('',#519);
#128=VERTEX_POINT('',#521);
#129=VERTEX_POINT('',#525);
#130=VERTEX_POINT('',#527);
#131=EDGE_CURVE('',#99,#100,#63,.T.);
#132=EDGE_CURVE('',#100,#101,#64,.T.);
#133=EDGE_CURVE('',#101,#102,#65,.T.);
#134=EDGE_CURVE('',#102,#103,#66,.T.);
#135=EDGE_CURVE('',#103,#104,#67,.T.);
#136=EDGE_CURVE('',#104,#102,#68,.T.);
#137=EDGE_CURVE('',#101,#99,#69,.T.);
#138=EDGE_CURVE('',#100,#105,#23,.T.);
#139=EDGE_CURVE('',#106,#105,#70,.T.);
#140=EDGE_CURVE('',#107,#106,#71,.T.);
#141=EDGE_CURVE('',#105,#107,#72,.T.);
#142=EDGE_CURVE('',#108,#109,#73,.T.);
#143=EDGE_CURVE('',#109,#103,#24,.T.);
#144=EDGE_CURVE('',#109,#108,#74,.T.);
#145=EDGE_CURVE('',#106,#110,#75,.T.);
#146=EDGE_CURVE('',#110,#111,#76,.T.);
#147=EDGE_CURVE('',#111,#112,#77,.T.);
#148=EDGE_CURVE('',#112,#110,#78,.T.);
#149=EDGE_CURVE('',#112,#113,#25,.T.);
#150=EDGE_CURVE('',#114,#113,#79,.T.);
#151=EDGE_CURVE('',#113,#114,#80,.T.);
#152=EDGE_CURVE('',#115,#116,#81,.T.);
#153=EDGE_CURVE('',#116,#117,#82,.T.);
#154=EDGE_CURVE('',#117,#118,#83,.T.);
#155=EDGE_CURVE('',#118,#119,#84,.T.);
#156=EDGE_CURVE('',#119,#117,#85,.T.);
#157=EDGE_CURVE('',#116,#120,#86,.T.);
#158=EDGE_CURVE('',#120,#115,#87,.T.);
#159=EDGE_CURVE('',#120,#121,#26,.T.);
#160=EDGE_CURVE('',#122,#121,#88,.T.);
#161=EDGE_CURVE('',#123,#122,#89,.T.);
#162=EDGE_CURVE('',#121,#123,#90,.T.);
#163=EDGE_CURVE('',#124,#125,#91,.T.);
#164=EDGE_CURVE('',#125,#124,#92,.T.);
#165=EDGE_CURVE('',#125,#119,#27,.T.);
#166=EDGE_CURVE('',#123,#126,#93,.T.);
#167=EDGE_CURVE('',#126,#127,#94,.T.);
#168=EDGE_CURVE('',#127,#128,#95,.T.);
#169=EDGE_CURVE('',#128,#126,#96,.T.);
#170=EDGE_CURVE('',#127,#129,#28,.T.);
#171=EDGE_CURVE('',#129,#130,#97,.T.);
#172=EDGE_CURVE('',#130,#129,#98,.T.);
#173=ORIENTED_EDGE('',*,*,#131,.T.);
#174=ORIENTED_EDGE('',*,*,#132,.T.);
#175=ORIENTED_EDGE('',*,*,#133,.T.);
#176=ORIENTED_EDGE('',*,*,#134,.T.);
#177=ORIENTED_EDGE('',*,*,#135,.T.);
#178=ORIENTED_EDGE('',*,*,#136,.T.);
#179=ORIENTED_EDGE('',*,*,#133,.F.);
#180=ORIENTED_EDGE('',*,*,#137,.T.);
#181=ORIENTED_EDGE('',*,*,#131,.F.);
#182=ORIENTED_EDGE('',*,*,#137,.F.);
#183=ORIENTED_EDGE('',*,*,#132,.F.);
#184=ORIENTED_EDGE('',*,*,#138,.T.);
#185=ORIENTED_EDGE('',*,*,#139,.F.);
#186=ORIENTED_EDGE('',*,*,#140,.F.);
#187=ORIENTED_EDGE('',*,*,#141,.F.);
#188=ORIENTED_EDGE('',*,*,#138,.F.);
#189=ORIENTED_EDGE('',*,*,#142,.T.);
#190=ORIENTED_EDGE('',*,*,#143,.T.);
#191=ORIENTED_EDGE('',*,*,#134,.F.);
#192=ORIENTED_EDGE('',*,*,#136,.F.);
#193=ORIENTED_EDGE('',*,*,#135,.F.);
#194=ORIENTED_EDGE('',*,*,#143,.F.);
#195=ORIENTED_EDGE('',*,*,#144,.T.);
#196=ORIENTED_EDGE('',*,*,#140,.T.);
#197=ORIENTED_EDGE('',*,*,#145,.T.);
#198=ORIENTED_EDGE('',*,*,#146,.T.);
#199=ORIENTED_EDGE('',*,*,#147,.T.);
#200=ORIENTED_EDGE('',*,*,#148,.T.);
#201=ORIENTED_EDGE('',*,*,#145,.F.);
#202=ORIENTED_EDGE('',*,*,#139,.T.);
#203=ORIENTED_EDGE('',*,*,#141,.T.);
#204=ORIENTED_EDGE('',*,*,#147,.F.);
#205=ORIENTED_EDGE('',*,*,#146,.F.);
#206=ORIENTED_EDGE('',*,*,#148,.F.);
#207=ORIENTED_EDGE('',*,*,#149,.T.);
#208=ORIENTED_EDGE('',*,*,#150,.F.);
#209=ORIENTED_EDGE('',*,*,#151,.F.);
#210=ORIENTED_EDGE('',*,*,#149,.F.);
#211=ORIENTED_EDGE('',*,*,#152,.T.);
#212=ORIENTED_EDGE('',*,*,#153,.T.);
#213=ORIENTED_EDGE('',*,*,#154,.T.);
#214=ORIENTED_EDGE('',*,*,#155,.T.);
#215=ORIENTED_EDGE('',*,*,#156,.T.);
#216=ORIENTED_EDGE('',*,*,#153,.F.);
#217=ORIENTED_EDGE('',*,*,#157,.T.);
#218=ORIENTED_EDGE('',*,*,#158,.T.);
#219=ORIENTED_EDGE('',*,*,#152,.F.);
#220=ORIENTED_EDGE('',*,*,#158,.F.);
#221=ORIENTED_EDGE('',*,*,#159,.T.);
#222=ORIENTED_EDGE('',*,*,#160,.F.);
#223=ORIENTED_EDGE('',*,*,#161,.F.);
#224=ORIENTED_EDGE('',*,*,#162,.F.);
#225=ORIENTED_EDGE('',*,*,#159,.F.);
#226=ORIENTED_EDGE('',*,*,#157,.F.);
#227=ORIENTED_EDGE('',*,*,#163,.F.);
#228=ORIENTED_EDGE('',*,*,#164,.F.);
#229=ORIENTED_EDGE('',*,*,#165,.T.);
#230=ORIENTED_EDGE('',*,*,#155,.F.);
#231=ORIENTED_EDGE('',*,*,#154,.F.);
#232=ORIENTED_EDGE('',*,*,#156,.F.);
#233=ORIENTED_EDGE('',*,*,#165,.F.);
#234=ORIENTED_EDGE('',*,*,#160,.T.);
#235=ORIENTED_EDGE('',*,*,#162,.T.);
#236=ORIENTED_EDGE('',*,*,#166,.T.);
#237=ORIENTED_EDGE('',*,*,#167,.T.);
#238=ORIENTED_EDGE('',*,*,#168,.T.);
#239=ORIENTED_EDGE('',*,*,#169,.T.);
#240=ORIENTED_EDGE('',*,*,#166,.F.);
#241=ORIENTED_EDGE('',*,*,#161,.T.);
#242=ORIENTED_EDGE('',*,*,#169,.F.);
#243=ORIENTED_EDGE('',*,*,#168,.F.);
#244=ORIENTED_EDGE('',*,*,#170,.T.);
#245=ORIENTED_EDGE('',*,*,#171,.T.);
#246=ORIENTED_EDGE('',*,*,#172,.T.);
#247=ORIENTED_EDGE('',*,*,#170,.F.);
#248=ORIENTED_EDGE('',*,*,#167,.F.);
#249=ORIENTED_EDGE('',*,*,#163,.T.);
#250=ORIENTED_EDGE('',*,*,#164,.T.);
#251=ORIENTED_EDGE('',*,*,#142,.F.);
#252=ORIENTED_EDGE('',*,*,#144,.F.);
#253=ORIENTED_EDGE('',*,*,#172,.F.);
#254=ORIENTED_EDGE('',*,*,#171,.F.);
#255=ORIENTED_EDGE('',*,*,#150,.T.);
#256=ORIENTED_EDGE('',*,*,#151,.T.);
#257=TOROIDAL_SURFACE('',#293,1.435,0.25);
#258=TOROIDAL_SURFACE('',#308,1.0675,0.25);
#259=TOROIDAL_SURFACE('',#316,1.5,0.25);
#260=TOROIDAL_SURFACE('',#331,1.1875,0.25);
#261=ADVANCED_FACE('',(#37),#257,.T.);
#262=ADVANCED_FACE('',(#38),#35,.F.);
#263=ADVANCED_FACE('',(#39),#19,.F.);
#264=ADVANCED_FACE('',(#40),#258,.F.);
#265=ADVANCED_FACE('',(#41),#20,.F.);
#266=ADVANCED_FACE('',(#42),#259,.F.);
#267=ADVANCED_FACE('',(#43),#36,.T.);
#268=ADVANCED_FACE('',(#44),#21,.T.);
#269=ADVANCED_FACE('',(#45),#260,.T.);
#270=ADVANCED_FACE('',(#46),#22,.T.);
#271=ADVANCED_FACE('',(#47,#15),#17,.T.);
#272=ADVANCED_FACE('',(#48,#16),#18,.T.);
#273=CLOSED_SHELL('',(#261,#262,#263,#264,#265,#266,#267,#268,#269,#270,
#271,#272));
#274=DERIVED_UNIT_ELEMENT(#276,1.);
#275=DERIVED_UNIT_ELEMENT(#539,3.);
#276=(
MASS_UNIT()
NAMED_UNIT(*)
SI_UNIT($,.GRAM.)
);
#277=DERIVED_UNIT((#274,#275));
#278=MEASURE_REPRESENTATION_ITEM('density measure',
POSITIVE_RATIO_MEASURE(1.),#277);
#279=PROPERTY_DEFINITION_REPRESENTATION(#284,#281);
#280=PROPERTY_DEFINITION_REPRESENTATION(#285,#282);
#281=REPRESENTATION('material name',(#283),#534);
#282=REPRESENTATION('density',(#278),#534);
#283=DESCRIPTIVE_REPRESENTATION_ITEM('Generic','Generic');
#284=PROPERTY_DEFINITION('material property','material name',#547);
#285=PROPERTY_DEFINITION('material property','density of part',#547);
#286=DATE_TIME_ROLE('creation_date');
#287=APPLIED_DATE_AND_TIME_ASSIGNMENT(#288,#286,(#547));
#288=DATE_AND_TIME(#289,#290);
#289=CALENDAR_DATE(2016,30,3);
#290=LOCAL_TIME(12,18,2.,#291);
#291=COORDINATED_UNIVERSAL_TIME_OFFSET(0,0,.BEHIND.);
#292=AXIS2_PLACEMENT_3D('placement',#445,#341,#342);
#293=AXIS2_PLACEMENT_3D('',#446,#343,#344);
#294=AXIS2_PLACEMENT_3D('',#449,#345,#346);
#295=AXIS2_PLACEMENT_3D('',#451,#347,#348);
#296=AXIS2_PLACEMENT_3D('',#453,#349,#350);
#297=AXIS2_PLACEMENT_3D('',#455,#351,#352);
#298=AXIS2_PLACEMENT_3D('',#457,#353,#354);
#299=AXIS2_PLACEMENT_3D('',#458,#355,#356);
#300=AXIS2_PLACEMENT_3D('',#459,#357,#358);
#301=AXIS2_PLACEMENT_3D('',#460,#359,#360);
#302=AXIS2_PLACEMENT_3D('',#464,#362,#363);
#303=AXIS2_PLACEMENT_3D('',#466,#364,#365);
#304=AXIS2_PLACEMENT_3D('',#467,#366,#367);
#305=AXIS2_PLACEMENT_3D('',#468,#368,#369);
#306=AXIS2_PLACEMENT_3D('',#471,#370,#371);
#307=AXIS2_PLACEMENT_3D('',#473,#373,#374);
#308=AXIS2_PLACEMENT_3D('',#474,#375,#376);
#309=AXIS2_PLACEMENT_3D('',#476,#377,#378);
#310=AXIS2_PLACEMENT_3D('',#478,#379,#380);
#311=AXIS2_PLACEMENT_3D('',#480,#381,#382);
#312=AXIS2_PLACEMENT_3D('',#481,#383,#384);
#313=AXIS2_PLACEMENT_3D('',#482,#385,#386);
#314=AXIS2_PLACEMENT_3D('',#486,#388,#389);
#315=AXIS2_PLACEMENT_3D('',#487,#390,#391);
#316=AXIS2_PLACEMENT_3D('',#488,#392,#393);
#317=AXIS2_PLACEMENT_3D('',#491,#394,#395);
#318=AXIS2_PLACEMENT_3D('',#493,#396,#397);
#319=AXIS2_PLACEMENT_3D('',#495,#398,#399);
#320=AXIS2_PLACEMENT_3D('',#497,#400,#401);
#321=AXIS2_PLACEMENT_3D('',#498,#402,#403);
#322=AXIS2_PLACEMENT_3D('',#500,#404,#405);
#323=AXIS2_PLACEMENT_3D('',#501,#406,#407);
#324=AXIS2_PLACEMENT_3D('',#502,#408,#409);
#325=AXIS2_PLACEMENT_3D('',#506,#411,#412);
#326=AXIS2_PLACEMENT_3D('',#508,#413,#414);
#327=AXIS2_PLACEMENT_3D('',#509,#415,#416);
#328=AXIS2_PLACEMENT_3D('',#510,#417,#418);
#329=AXIS2_PLACEMENT_3D('',#513,#419,#420);
#330=AXIS2_PLACEMENT_3D('',#514,#421,#422);
#331=AXIS2_PLACEMENT_3D('',#516,#424,#425);
#332=AXIS2_PLACEMENT_3D('',#518,#426,#427);
#333=AXIS2_PLACEMENT_3D('',#520,#428,#429);
#334=AXIS2_PLACEMENT_3D('',#522,#430,#431);
#335=AXIS2_PLACEMENT_3D('',#523,#432,#433);
#336=AXIS2_PLACEMENT_3D('',#524,#434,#435);
#337=AXIS2_PLACEMENT_3D('',#528,#437,#438);
#338=AXIS2_PLACEMENT_3D('',#529,#439,#440);
#339=AXIS2_PLACEMENT_3D('',#530,#441,#442);
#340=AXIS2_PLACEMENT_3D('',#531,#443,#444);
#341=DIRECTION('axis',(0.,0.,1.));
#342=DIRECTION('refdir',(1.,0.,0.));
#343=DIRECTION('center_axis',(1.,0.,0.));
#344=DIRECTION('ref_axis',(0.,0.,-1.));
#345=DIRECTION('center_axis',(-1.,0.,0.));
#346=DIRECTION('ref_axis',(0.,-1.,3.06161699786838E-17));
#347=DIRECTION('center_axis',(-1.,0.,0.));
#348=DIRECTION('ref_axis',(0.,-1.,3.06161699786838E-17));
#349=DIRECTION('center_axis',(0.,-1.,-1.22464679914735E-16));
#350=DIRECTION('ref_axis',(0.,-1.22464679914735E-16,1.));
#351=DIRECTION('center_axis',(1.,0.,0.));
#352=DIRECTION('ref_axis',(0.,-1.,1.83697019872103E-16));
#353=DIRECTION('center_axis',(1.,0.,0.));
#354=DIRECTION('ref_axis',(0.,-1.,1.83697019872103E-16));
#355=DIRECTION('center_axis',(1.,0.,0.));
#356=DIRECTION('ref_axis',(0.,-1.,1.83697019872103E-16));
#357=DIRECTION('center_axis',(-1.,0.,0.));
#358=DIRECTION('ref_axis',(0.,-1.,3.06161699786838E-17));
#359=DIRECTION('center_axis',(-1.,0.,0.));
#360=DIRECTION('ref_axis',(0.,1.,0.));
#361=DIRECTION('',(-0.992277876713668,-0.124034734589208,-1.51898740697766E-17));
#362=DIRECTION('center_axis',(1.,0.,0.));
#363=DIRECTION('ref_axis',(0.,-1.,3.06161699786838E-17));
#364=DIRECTION('center_axis',(1.,0.,0.));
#365=DIRECTION('ref_axis',(0.,-1.,3.06161699786838E-17));
#366=DIRECTION('center_axis',(1.,0.,0.));
#367=DIRECTION('ref_axis',(0.,-1.,3.06161699786838E-17));
#368=DIRECTION('center_axis',(1.,0.,0.));
#369=DIRECTION('ref_axis',(0.,1.,0.));
#370=DIRECTION('center_axis',(1.,0.,0.));
#371=DIRECTION('ref_axis',(0.,0.,-1.));
#372=DIRECTION('',(-1.,0.,0.));
#373=DIRECTION('center_axis',(1.,0.,0.));
#374=DIRECTION('ref_axis',(0.,0.,-1.));
#375=DIRECTION('center_axis',(1.,0.,0.));
#376=DIRECTION('ref_axis',(0.,0.,-1.));
#377=DIRECTION('center_axis',(0.,-1.,-1.22464679914735E-16));
#378=DIRECTION('ref_axis',(0.,-1.22464679914735E-16,1.));
#379=DIRECTION('center_axis',(-1.,0.,0.));
#380=DIRECTION('ref_axis',(0.,-1.,1.83697019872103E-16));
#381=DIRECTION('center_axis',(-1.,0.,0.));
#382=DIRECTION('ref_axis',(0.,-1.,1.83697019872103E-16));
#383=DIRECTION('center_axis',(-1.,0.,0.));
#384=DIRECTION('ref_axis',(0.,-1.,1.83697019872103E-16));
#385=DIRECTION('center_axis',(1.,0.,0.));
#386=DIRECTION('ref_axis',(0.,1.,0.));
#387=DIRECTION('',(-1.,0.,0.));
#388=DIRECTION('center_axis',(1.,0.,0.));
#389=DIRECTION('ref_axis',(0.,0.,-1.));
#390=DIRECTION('center_axis',(1.,0.,0.));
#391=DIRECTION('ref_axis',(0.,0.,-1.));
#392=DIRECTION('center_axis',(1.,0.,0.));
#393=DIRECTION('ref_axis',(0.,0.,-1.));
#394=DIRECTION('center_axis',(1.,0.,0.));
#395=DIRECTION('ref_axis',(0.,-1.,3.06161699786838E-17));
#396=DIRECTION('center_axis',(0.,-1.,-1.22464679914735E-16));
#397=DIRECTION('ref_axis',(0.,-1.22464679914735E-16,1.));
#398=DIRECTION('center_axis',(-1.,0.,0.));
#399=DIRECTION('ref_axis',(0.,-1.,1.83697019872103E-16));
#400=DIRECTION('center_axis',(-1.,0.,0.));
#401=DIRECTION('ref_axis',(0.,-1.,1.83697019872103E-16));
#402=DIRECTION('center_axis',(-1.,0.,0.));
#403=DIRECTION('ref_axis',(0.,-1.,1.83697019872103E-16));
#404=DIRECTION('center_axis',(1.,0.,0.));
#405=DIRECTION('ref_axis',(0.,-1.,3.06161699786838E-17));
#406=DIRECTION('center_axis',(1.,0.,0.));
#407=DIRECTION('ref_axis',(0.,-1.,3.06161699786838E-17));
#408=DIRECTION('center_axis',(-1.,0.,0.));
#409=DIRECTION('ref_axis',(0.,1.,0.));
#410=DIRECTION('',(-0.992277876713668,-0.124034734589208,-1.51898740697765E-17));
#411=DIRECTION('center_axis',(-1.,0.,0.));
#412=DIRECTION('ref_axis',(0.,-1.,3.06161699786839E-17));
#413=DIRECTION('center_axis',(-1.,0.,0.));
#414=DIRECTION('ref_axis',(0.,-1.,3.06161699786839E-17));
#415=DIRECTION('center_axis',(-1.,0.,0.));
#416=DIRECTION('ref_axis',(0.,-1.,3.06161699786839E-17));
#417=DIRECTION('center_axis',(1.,0.,0.));
#418=DIRECTION('ref_axis',(0.,1.,0.));
#419=DIRECTION('center_axis',(1.,0.,0.));
#420=DIRECTION('ref_axis',(0.,0.,-1.));
#421=DIRECTION('center_axis',(1.,0.,0.));
#422=DIRECTION('ref_axis',(0.,0.,-1.));
#423=DIRECTION('',(-1.,0.,0.));
#424=DIRECTION('center_axis',(1.,0.,0.));
#425=DIRECTION('ref_axis',(0.,0.,-1.));
#426=DIRECTION('center_axis',(0.,-1.,-1.22464679914735E-16));
#427=DIRECTION('ref_axis',(0.,-1.22464679914735E-16,1.));
#428=DIRECTION('center_axis',(1.,0.,0.));
#429=DIRECTION('ref_axis',(0.,-1.,1.83697019872103E-16));
#430=DIRECTION('center_axis',(1.,0.,0.));
#431=DIRECTION('ref_axis',(0.,-1.,1.83697019872103E-16));
#432=DIRECTION('center_axis',(1.,0.,0.));
#433=DIRECTION('ref_axis',(0.,-1.,1.83697019872103E-16));
#434=DIRECTION('center_axis',(1.,0.,0.));
#435=DIRECTION('ref_axis',(0.,1.,0.));
#436=DIRECTION('',(-1.,0.,0.));
#437=DIRECTION('center_axis',(1.,0.,0.));
#438=DIRECTION('ref_axis',(0.,0.,-1.));
#439=DIRECTION('center_axis',(1.,0.,0.));
#440=DIRECTION('ref_axis',(0.,0.,-1.));
#441=DIRECTION('center_axis',(1.,0.,0.));
#442=DIRECTION('ref_axis',(0.,0.,-1.));
#443=DIRECTION('center_axis',(-1.,0.,0.));
#444=DIRECTION('ref_axis',(0.,0.,1.));
#445=CARTESIAN_POINT('',(0.,0.,0.));
#446=CARTESIAN_POINT('Origin',(1.56809350727881,0.,0.));
#447=CARTESIAN_POINT('',(1.53708482363151,1.18693053082158,-3.6339266884523E-16));
#448=CARTESIAN_POINT('',(1.53708482363151,-1.18693053082158,-1.45357067538092E-16));
#449=CARTESIAN_POINT('Origin',(1.53708482363151,0.,-1.81696334422615E-16));
#450=CARTESIAN_POINT('',(1.53708482363151,-1.45357067538092E-16,1.18693053082158));
#451=CARTESIAN_POINT('Origin',(1.53708482363151,0.,-1.81696334422615E-16));
#452=CARTESIAN_POINT('',(1.56809350727881,-1.45120645698961E-16,1.185));
#453=CARTESIAN_POINT('Origin',(1.56809350727881,-1.75736815677645E-16,1.435));
#454=CARTESIAN_POINT('',(1.56809350727881,-1.185,-1.45120645698961E-16));
#455=CARTESIAN_POINT('Origin',(1.56809350727881,0.,0.));
#456=CARTESIAN_POINT('',(1.56809350727881,1.185,-7.25603228494806E-17));
#457=CARTESIAN_POINT('Origin',(1.56809350727881,0.,0.));
#458=CARTESIAN_POINT('Origin',(1.56809350727881,0.,0.));
#459=CARTESIAN_POINT('Origin',(1.53708482363151,0.,-1.81696334422615E-16));
#460=CARTESIAN_POINT('Origin',(1.02252907020417,0.,0.));
#461=CARTESIAN_POINT('',(0.507973316776834,-1.31556946917842,-1.61110793948533E-16));
#462=CARTESIAN_POINT('',(1.02252907020417,-1.25125,-1.53233930743313E-16));
#463=CARTESIAN_POINT('',(0.507973316776835,-1.61110793948533E-16,1.31556946917842));
#464=CARTESIAN_POINT('Origin',(0.507973316776834,0.,-2.01388492435666E-16));
#465=CARTESIAN_POINT('',(0.507973316776834,1.31556946917842,-8.05553969742665E-17));
#466=CARTESIAN_POINT('Origin',(0.507973316776834,0.,-2.01388492435666E-16));
#467=CARTESIAN_POINT('Origin',(0.507973316776834,0.,-2.01388492435666E-16));
#468=CARTESIAN_POINT('Origin',(2.02626453510209,0.,0.));
#469=CARTESIAN_POINT('',(2.5,1.185,0.));
#470=CARTESIAN_POINT('',(2.5,-1.185,-1.45120645698961E-16));
#471=CARTESIAN_POINT('Origin',(2.5,0.,0.));
#472=CARTESIAN_POINT('',(2.02626453510209,-1.185,-1.45120645698961E-16));
#473=CARTESIAN_POINT('Origin',(2.5,0.,0.));
#474=CARTESIAN_POINT('Origin',(0.476964633129532,0.,0.));
#475=CARTESIAN_POINT('',(0.476964633129532,-1.61347215787664E-16,1.3175));
#476=CARTESIAN_POINT('Origin',(0.476964633129532,-1.3073104580898E-16,1.0675));
#477=CARTESIAN_POINT('',(0.476964633129532,1.3175,-4.03368039469159E-16));
#478=CARTESIAN_POINT('Origin',(0.476964633129532,0.,0.));
#479=CARTESIAN_POINT('',(0.476964633129532,-1.3175,-1.61347215787664E-16));
#480=CARTESIAN_POINT('Origin',(0.476964633129532,0.,0.));
#481=CARTESIAN_POINT('Origin',(0.476964633129532,0.,0.));
#482=CARTESIAN_POINT('Origin',(0.246264535102085,0.,0.));
#483=CARTESIAN_POINT('',(-2.62257407391769E-16,-1.3175,-1.61347215787664E-16));
#484=CARTESIAN_POINT('',(0.246264535102085,-1.3175,-1.61347215787664E-16));
#485=CARTESIAN_POINT('',(-2.62257407391769E-16,1.3175,0.));
#486=CARTESIAN_POINT('Origin',(-2.62257407391769E-16,0.,0.));
#487=CARTESIAN_POINT('Origin',(-2.62257407391769E-16,0.,0.));
#488=CARTESIAN_POINT('Origin',(2.01556443707464,0.,0.));
#489=CARTESIAN_POINT('',(1.98455575342734,1.25193053082158,-7.66586358662749E-17));
#490=CARTESIAN_POINT('',(1.98455575342734,-1.5331727173255E-16,1.25193053082158));
#491=CARTESIAN_POINT('Origin',(1.98455575342734,0.,-1.91646589665687E-16));
#492=CARTESIAN_POINT('',(2.01556443707464,-1.53080849893419E-16,1.25));
#493=CARTESIAN_POINT('Origin',(2.01556443707464,-1.83697019872103E-16,1.5));
#494=CARTESIAN_POINT('',(2.01556443707464,1.25,-3.82702124733548E-16));
#495=CARTESIAN_POINT('Origin',(2.01556443707464,0.,0.));
#496=CARTESIAN_POINT('',(2.01556443707464,-1.25,-1.53080849893419E-16));
#497=CARTESIAN_POINT('Origin',(2.01556443707464,0.,0.));
#498=CARTESIAN_POINT('Origin',(2.01556443707464,0.,0.));
#499=CARTESIAN_POINT('',(1.98455575342734,-1.25193053082158,-1.5331727173255E-16));
#500=CARTESIAN_POINT('Origin',(1.98455575342734,0.,-1.91646589665687E-16));
#501=CARTESIAN_POINT('Origin',(1.98455575342734,0.,-1.91646589665687E-16));
#502=CARTESIAN_POINT('Origin',(1.25,0.,0.));
#503=CARTESIAN_POINT('',(0.515444246572664,-1.43556946917842,-1.75806555538301E-16));
#504=CARTESIAN_POINT('',(1.25,-1.34375,-1.64561913635426E-16));
#505=CARTESIAN_POINT('',(0.515444246572664,1.43556946917842,-4.39516388845753E-16));
#506=CARTESIAN_POINT('Origin',(0.515444246572664,0.,-2.19758194422877E-16));
#507=CARTESIAN_POINT('',(0.515444246572664,-1.75806555538301E-16,1.43556946917842));
#508=CARTESIAN_POINT('Origin',(0.515444246572664,0.,-2.19758194422877E-16));
#509=CARTESIAN_POINT('Origin',(0.515444246572664,0.,-2.19758194422877E-16));
#510=CARTESIAN_POINT('Origin',(2.25,0.,0.));
#511=CARTESIAN_POINT('',(2.5,1.25,0.));
#512=CARTESIAN_POINT('',(2.5,-1.25,-1.53080849893419E-16));
#513=CARTESIAN_POINT('Origin',(2.5,0.,0.));
#514=CARTESIAN_POINT('Origin',(2.5,0.,0.));
#515=CARTESIAN_POINT('',(2.25,-1.25,-1.53080849893419E-16));
#516=CARTESIAN_POINT('Origin',(0.484435562925362,0.,0.));
#517=CARTESIAN_POINT('',(0.484435562925362,-1.76042977377432E-16,1.4375));
#518=CARTESIAN_POINT('Origin',(0.484435562925362,-1.45426807398748E-16,
1.1875));
#519=CARTESIAN_POINT('',(0.484435562925362,-1.4375,-1.76042977377432E-16));
#520=CARTESIAN_POINT('Origin',(0.484435562925362,0.,0.));
#521=CARTESIAN_POINT('',(0.484435562925362,1.4375,-8.8021488688716E-17));
#522=CARTESIAN_POINT('Origin',(0.484435562925362,0.,0.));
#523=CARTESIAN_POINT('Origin',(0.484435562925362,0.,0.));
#524=CARTESIAN_POINT('Origin',(0.25,0.,0.));
#525=CARTESIAN_POINT('',(-2.62257407391769E-16,-1.4375,-1.76042977377432E-16));
#526=CARTESIAN_POINT('',(0.25,-1.4375,-1.76042977377432E-16));
#527=CARTESIAN_POINT('',(-2.62257407391769E-16,1.4375,0.));
#528=CARTESIAN_POINT('Origin',(-2.62257407391769E-16,0.,0.));
#529=CARTESIAN_POINT('Origin',(-2.62257407391769E-16,0.,0.));
#530=CARTESIAN_POINT('Origin',(2.5,1.185,0.));
#531=CARTESIAN_POINT('Origin',(-2.62257407391769E-16,1.4375,0.));
#532=UNCERTAINTY_MEASURE_WITH_UNIT(LENGTH_MEASURE(0.000393700787401575),
#537,'DISTANCE_ACCURACY_VALUE',
'Maximum model space distance between geometric entities at asserted c
onnectivities');
#533=UNCERTAINTY_MEASURE_WITH_UNIT(LENGTH_MEASURE(0.000393700787401575),
#537,'DISTANCE_ACCURACY_VALUE',
'Maximum model space distance between geometric entities at asserted c
onnectivities');
#534=(
GEOMETRIC_REPRESENTATION_CONTEXT(3)
GLOBAL_UNCERTAINTY_ASSIGNED_CONTEXT((#532))
GLOBAL_UNIT_ASSIGNED_CONTEXT((#537,#541,#542))
REPRESENTATION_CONTEXT('','3D')
);
#535=(
GEOMETRIC_REPRESENTATION_CONTEXT(3)
GLOBAL_UNCERTAINTY_ASSIGNED_CONTEXT((#533))
GLOBAL_UNIT_ASSIGNED_CONTEXT((#537,#541,#542))
REPRESENTATION_CONTEXT('','3D')
);
#536=DIMENSIONAL_EXPONENTS(1.,0.,0.,0.,0.,0.,0.);
#537=(
CONVERSION_BASED_UNIT('inch',#540)
LENGTH_UNIT()
NAMED_UNIT(#536)
);
#538=(
LENGTH_UNIT()
NAMED_UNIT(*)
SI_UNIT(.MILLI.,.METRE.)
);
#539=(
LENGTH_UNIT()
NAMED_UNIT(*)
SI_UNIT(.CENTI.,.METRE.)
);
#540=LENGTH_MEASURE_WITH_UNIT(LENGTH_MEASURE(25.4),#538);
#541=(
NAMED_UNIT(*)
PLANE_ANGLE_UNIT()
SI_UNIT($,.RADIAN.)
);
#542=(
NAMED_UNIT(*)
SI_UNIT($,.STERADIAN.)
SOLID_ANGLE_UNIT()
);
#543=SHAPE_DEFINITION_REPRESENTATION(#544,#545);
#544=PRODUCT_DEFINITION_SHAPE('',$,#547);
#545=SHAPE_REPRESENTATION('',(#292),#534);
#546=PRODUCT_DEFINITION_CONTEXT('part definition',#551,'design');
#547=PRODUCT_DEFINITION('19WX-2.5','19WX-2.5',#548,#546);
#548=PRODUCT_DEFINITION_FORMATION('',$,#553);
#549=PRODUCT_RELATED_PRODUCT_CATEGORY('19WX-2.5','19WX-2.5',(#553));
#550=APPLICATION_PROTOCOL_DEFINITION('international standard',
'automotive_design',2009,#551);
#551=APPLICATION_CONTEXT(
'Core Data for Automotive Mechanical Design Process');
#552=PRODUCT_CONTEXT('part definition',#551,'mechanical');
#553=PRODUCT('19WX-2.5','19WX-2.5',$,(#552));
#554=PRESENTATION_STYLE_ASSIGNMENT((#555));
#555=SURFACE_STYLE_USAGE(.BOTH.,#558);
#556=SURFACE_STYLE_RENDERING_WITH_PROPERTIES($,#562,(#557));
#557=SURFACE_STYLE_TRANSPARENT(0.);
#558=SURFACE_SIDE_STYLE('',(#559,#556));
#559=SURFACE_STYLE_FILL_AREA(#560);
#560=FILL_AREA_STYLE('',(#561));
#561=FILL_AREA_STYLE_COLOUR('',#562);
#562=COLOUR_RGB('',0.749019607843137,0.749019607843137,0.749019607843137);
ENDSEC;
END-ISO-10303-21;
