ISO-10303-21;
HEADER;
/* Generated by software containing ST-Developer
 * from STEP Tools, Inc. (www.steptools.com) 
 */

FILE_DESCRIPTION(
/* description */ (''),
/* implementation_level */ '2;1');

FILE_NAME(
/* name */ 
'W:\\AUTOCAD\\AutoCad - Projects\\Numbered\\19WX\\STEP FILES\\19WX-3.s
tp',
/* time_stamp */ '2020-09-02T06:40:54-04:00',
/* author */ ('ken'),
/* organization */ (''),
/* preprocessor_version */ 'ST-DEVELOPER v15.2',
/* originating_system */ 'Autodesk Inventor 2014',
/* authorisation */ '');

FILE_SCHEMA (('AUTOMOTIVE_DESIGN { 1 0 10303 214 3 1 1 }'));
ENDSEC;

DATA;
#10=MECHANICAL_DESIGN_GEOMETRIC_PRESENTATION_REPRESENTATION('',(#13),#263);
#11=SHAPE_REPRESENTATION_RELATIONSHIP('SRR','None',#275,#12);
#12=ADVANCED_BREP_SHAPE_REPRESENTATION($,(#147),#262);
#13=STYLED_ITEM('',(#284),#147);
#14=PLANE('',#171);
#15=PLANE('',#172);
#16=CYLINDRICAL_SURFACE('',#154,1.435);
#17=CYLINDRICAL_SURFACE('',#158,1.63);
#18=CYLINDRICAL_SURFACE('',#165,1.5);
#19=CYLINDRICAL_SURFACE('',#169,1.75);
#20=CONICAL_SURFACE('',#152,1.5325,9.4623222080256);
#21=CONICAL_SURFACE('',#163,1.625,9.4623222080256);
#22=FACE_BOUND('',#47,.T.);
#23=FACE_BOUND('',#49,.T.);
#24=FACE_BOUND('',#51,.T.);
#25=FACE_BOUND('',#53,.T.);
#26=FACE_BOUND('',#55,.T.);
#27=FACE_BOUND('',#57,.T.);
#28=FACE_BOUND('',#59,.T.);
#29=FACE_BOUND('',#61,.T.);
#30=FACE_BOUND('',#63,.T.);
#31=FACE_BOUND('',#65,.T.);
#32=FACE_BOUND('',#66,.T.);
#33=FACE_BOUND('',#67,.T.);
#34=FACE_BOUND('',#69,.T.);
#35=FACE_OUTER_BOUND('',#46,.T.);
#36=FACE_OUTER_BOUND('',#48,.T.);
#37=FACE_OUTER_BOUND('',#50,.T.);
#38=FACE_OUTER_BOUND('',#52,.T.);
#39=FACE_OUTER_BOUND('',#54,.T.);
#40=FACE_OUTER_BOUND('',#56,.T.);
#41=FACE_OUTER_BOUND('',#58,.T.);
#42=FACE_OUTER_BOUND('',#60,.T.);
#43=FACE_OUTER_BOUND('',#62,.T.);
#44=FACE_OUTER_BOUND('',#64,.T.);
#45=FACE_OUTER_BOUND('',#68,.T.);
#46=EDGE_LOOP('',(#106));
#47=EDGE_LOOP('',(#107));
#48=EDGE_LOOP('',(#108));
#49=EDGE_LOOP('',(#109));
#50=EDGE_LOOP('',(#110));
#51=EDGE_LOOP('',(#111));
#52=EDGE_LOOP('',(#112));
#53=EDGE_LOOP('',(#113));
#54=EDGE_LOOP('',(#114));
#55=EDGE_LOOP('',(#115));
#56=EDGE_LOOP('',(#116));
#57=EDGE_LOOP('',(#117));
#58=EDGE_LOOP('',(#118));
#59=EDGE_LOOP('',(#119));
#60=EDGE_LOOP('',(#120));
#61=EDGE_LOOP('',(#121));
#62=EDGE_LOOP('',(#122));
#63=EDGE_LOOP('',(#123));
#64=EDGE_LOOP('',(#124));
#65=EDGE_LOOP('',(#125));
#66=EDGE_LOOP('',(#126));
#67=EDGE_LOOP('',(#127));
#68=EDGE_LOOP('',(#128));
#69=EDGE_LOOP('',(#129));
#70=CIRCLE('',#150,1.435);
#71=CIRCLE('',#151,1.43840151904196);
#72=CIRCLE('',#153,1.62659848095804);
#73=CIRCLE('',#155,1.435);
#74=CIRCLE('',#157,1.63);
#75=CIRCLE('',#159,1.63);
#76=CIRCLE('',#161,1.50340151904196);
#77=CIRCLE('',#162,1.5);
#78=CIRCLE('',#164,1.74659848095804);
#79=CIRCLE('',#166,1.5);
#80=CIRCLE('',#168,1.75);
#81=CIRCLE('',#170,1.75);
#82=VERTEX_POINT('',#225);
#83=VERTEX_POINT('',#227);
#84=VERTEX_POINT('',#230);
#85=VERTEX_POINT('',#233);
#86=VERTEX_POINT('',#236);
#87=VERTEX_POINT('',#239);
#88=VERTEX_POINT('',#242);
#89=VERTEX_POINT('',#244);
#90=VERTEX_POINT('',#247);
#91=VERTEX_POINT('',#250);
#92=VERTEX_POINT('',#253);
#93=VERTEX_POINT('',#256);
#94=EDGE_CURVE('',#82,#82,#70,.T.);
#95=EDGE_CURVE('',#83,#83,#71,.T.);
#96=EDGE_CURVE('',#84,#84,#72,.T.);
#97=EDGE_CURVE('',#85,#85,#73,.T.);
#98=EDGE_CURVE('',#86,#86,#74,.T.);
#99=EDGE_CURVE('',#87,#87,#75,.T.);
#100=EDGE_CURVE('',#88,#88,#76,.T.);
#101=EDGE_CURVE('',#89,#89,#77,.T.);
#102=EDGE_CURVE('',#90,#90,#78,.T.);
#103=EDGE_CURVE('',#91,#91,#79,.T.);
#104=EDGE_CURVE('',#92,#92,#80,.T.);
#105=EDGE_CURVE('',#93,#93,#81,.T.);
#106=ORIENTED_EDGE('',*,*,#94,.T.);
#107=ORIENTED_EDGE('',*,*,#95,.T.);
#108=ORIENTED_EDGE('',*,*,#96,.F.);
#109=ORIENTED_EDGE('',*,*,#95,.F.);
#110=ORIENTED_EDGE('',*,*,#97,.T.);
#111=ORIENTED_EDGE('',*,*,#94,.F.);
#112=ORIENTED_EDGE('',*,*,#96,.T.);
#113=ORIENTED_EDGE('',*,*,#98,.T.);
#114=ORIENTED_EDGE('',*,*,#99,.F.);
#115=ORIENTED_EDGE('',*,*,#98,.F.);
#116=ORIENTED_EDGE('',*,*,#100,.T.);
#117=ORIENTED_EDGE('',*,*,#101,.T.);
#118=ORIENTED_EDGE('',*,*,#102,.F.);
#119=ORIENTED_EDGE('',*,*,#100,.F.);
#120=ORIENTED_EDGE('',*,*,#103,.F.);
#121=ORIENTED_EDGE('',*,*,#101,.F.);
#122=ORIENTED_EDGE('',*,*,#104,.T.);
#123=ORIENTED_EDGE('',*,*,#102,.T.);
#124=ORIENTED_EDGE('',*,*,#105,.T.);
#125=ORIENTED_EDGE('',*,*,#104,.F.);
#126=ORIENTED_EDGE('',*,*,#97,.F.);
#127=ORIENTED_EDGE('',*,*,#103,.T.);
#128=ORIENTED_EDGE('',*,*,#105,.F.);
#129=ORIENTED_EDGE('',*,*,#99,.T.);
#130=TOROIDAL_SURFACE('',#149,1.685,0.25);
#131=TOROIDAL_SURFACE('',#156,1.38,0.25);
#132=TOROIDAL_SURFACE('',#160,1.75,0.25);
#133=TOROIDAL_SURFACE('',#167,1.5,0.25);
#134=ADVANCED_FACE('',(#35,#22),#130,.T.);
#135=ADVANCED_FACE('',(#36,#23),#20,.F.);
#136=ADVANCED_FACE('',(#37,#24),#16,.F.);
#137=ADVANCED_FACE('',(#38,#25),#131,.F.);
#138=ADVANCED_FACE('',(#39,#26),#17,.F.);
#139=ADVANCED_FACE('',(#40,#27),#132,.F.);
#140=ADVANCED_FACE('',(#41,#28),#21,.T.);
#141=ADVANCED_FACE('',(#42,#29),#18,.T.);
#142=ADVANCED_FACE('',(#43,#30),#133,.T.);
#143=ADVANCED_FACE('',(#44,#31),#19,.T.);
#144=ADVANCED_FACE('',(#32,#33),#14,.T.);
#145=ADVANCED_FACE('',(#45,#34),#15,.T.);
#146=CLOSED_SHELL('',(#134,#135,#136,#137,#138,#139,#140,#141,#142,#143,
#144,#145));
#147=MANIFOLD_SOLID_BREP('Solid1',#146);
#148=AXIS2_PLACEMENT_3D('placement',#223,#173,#174);
#149=AXIS2_PLACEMENT_3D('',#224,#175,#176);
#150=AXIS2_PLACEMENT_3D('',#226,#177,#178);
#151=AXIS2_PLACEMENT_3D('',#228,#179,#180);
#152=AXIS2_PLACEMENT_3D('',#229,#181,#182);
#153=AXIS2_PLACEMENT_3D('',#231,#183,#184);
#154=AXIS2_PLACEMENT_3D('',#232,#185,#186);
#155=AXIS2_PLACEMENT_3D('',#234,#187,#188);
#156=AXIS2_PLACEMENT_3D('',#235,#189,#190);
#157=AXIS2_PLACEMENT_3D('',#237,#191,#192);
#158=AXIS2_PLACEMENT_3D('',#238,#193,#194);
#159=AXIS2_PLACEMENT_3D('',#240,#195,#196);
#160=AXIS2_PLACEMENT_3D('',#241,#197,#198);
#161=AXIS2_PLACEMENT_3D('',#243,#199,#200);
#162=AXIS2_PLACEMENT_3D('',#245,#201,#202);
#163=AXIS2_PLACEMENT_3D('',#246,#203,#204);
#164=AXIS2_PLACEMENT_3D('',#248,#205,#206);
#165=AXIS2_PLACEMENT_3D('',#249,#207,#208);
#166=AXIS2_PLACEMENT_3D('',#251,#209,#210);
#167=AXIS2_PLACEMENT_3D('',#252,#211,#212);
#168=AXIS2_PLACEMENT_3D('',#254,#213,#214);
#169=AXIS2_PLACEMENT_3D('',#255,#215,#216);
#170=AXIS2_PLACEMENT_3D('',#257,#217,#218);
#171=AXIS2_PLACEMENT_3D('',#258,#219,#220);
#172=AXIS2_PLACEMENT_3D('',#259,#221,#222);
#173=DIRECTION('axis',(0.,0.,1.));
#174=DIRECTION('refdir',(1.,0.,0.));
#175=DIRECTION('center_axis',(1.,5.04684634246922E-034,0.));
#176=DIRECTION('ref_axis',(0.,0.,-1.));
#177=DIRECTION('center_axis',(1.,5.04684634246922E-034,0.));
#178=DIRECTION('ref_axis',(0.,-1.,1.83697019872103E-016));
#179=DIRECTION('center_axis',(-1.,0.,0.));
#180=DIRECTION('ref_axis',(0.,-1.,3.06161699786838E-017));
#181=DIRECTION('center_axis',(-1.,-5.04684634246922E-034,0.));
#182=DIRECTION('ref_axis',(0.,1.,0.));
#183=DIRECTION('center_axis',(1.,0.,0.));
#184=DIRECTION('ref_axis',(0.,-1.,3.06161699786838E-017));
#185=DIRECTION('center_axis',(1.,5.04684634246922E-034,0.));
#186=DIRECTION('ref_axis',(0.,1.,0.));
#187=DIRECTION('center_axis',(1.,5.04684634246922E-034,0.));
#188=DIRECTION('ref_axis',(0.,0.,-1.));
#189=DIRECTION('center_axis',(1.,5.04684634246922E-034,0.));
#190=DIRECTION('ref_axis',(0.,0.,-1.));
#191=DIRECTION('center_axis',(-1.,-5.04684634246922E-034,0.));
#192=DIRECTION('ref_axis',(0.,-1.,1.83697019872103E-016));
#193=DIRECTION('center_axis',(1.,5.04684634246922E-034,0.));
#194=DIRECTION('ref_axis',(0.,1.,0.));
#195=DIRECTION('center_axis',(1.,5.04684634246922E-034,0.));
#196=DIRECTION('ref_axis',(0.,0.,-1.));
#197=DIRECTION('center_axis',(1.,5.04684634246922E-034,0.));
#198=DIRECTION('ref_axis',(0.,0.,-1.));
#199=DIRECTION('center_axis',(1.,0.,0.));
#200=DIRECTION('ref_axis',(0.,-1.,3.06161699786838E-017));
#201=DIRECTION('center_axis',(-1.,-5.04684634246922E-034,0.));
#202=DIRECTION('ref_axis',(0.,-1.,1.83697019872103E-016));
#203=DIRECTION('center_axis',(-1.,-5.04684634246922E-034,0.));
#204=DIRECTION('ref_axis',(0.,1.,0.));
#205=DIRECTION('center_axis',(-1.,0.,0.));
#206=DIRECTION('ref_axis',(0.,-1.,3.06161699786838E-017));
#207=DIRECTION('center_axis',(1.,5.04684634246922E-034,0.));
#208=DIRECTION('ref_axis',(0.,1.,0.));
#209=DIRECTION('center_axis',(1.,5.04684634246922E-034,0.));
#210=DIRECTION('ref_axis',(0.,0.,-1.));
#211=DIRECTION('center_axis',(1.,5.04684634246922E-034,0.));
#212=DIRECTION('ref_axis',(0.,0.,-1.));
#213=DIRECTION('center_axis',(1.,5.04684634246922E-034,0.));
#214=DIRECTION('ref_axis',(0.,-1.,1.83697019872103E-016));
#215=DIRECTION('center_axis',(1.,5.04684634246922E-034,0.));
#216=DIRECTION('ref_axis',(0.,1.,0.));
#217=DIRECTION('center_axis',(1.,5.04684634246922E-034,0.));
#218=DIRECTION('ref_axis',(0.,0.,-1.));
#219=DIRECTION('center_axis',(1.,5.04684634246922E-034,0.));
#220=DIRECTION('ref_axis',(0.,0.,-1.));
#221=DIRECTION('center_axis',(-1.,-5.04684634246922E-034,0.));
#222=DIRECTION('ref_axis',(0.,0.,1.));
#223=CARTESIAN_POINT('',(0.,0.,0.));
#224=CARTESIAN_POINT('Origin',(1.68075912893877,8.4825330624564E-034,0.));
#225=CARTESIAN_POINT('',(1.68075912893877,1.435,-8.78684078388226E-017));
#226=CARTESIAN_POINT('Origin',(1.68075912893877,8.4825330624564E-034,0.));
#227=CARTESIAN_POINT('',(1.63965938211243,1.43840151904196,-4.40383454045858E-016));
#228=CARTESIAN_POINT('Origin',(1.63965938211243,0.,-2.20191727022929E-016));
#229=CARTESIAN_POINT('Origin',(1.07506849636422,5.42570550877964E-034,0.));
#230=CARTESIAN_POINT('',(0.510477610616001,1.62659848095804,-9.96004311601603E-017));
#231=CARTESIAN_POINT('Origin',(0.510477610616001,0.,-2.49001077900401E-016));
#232=CARTESIAN_POINT('Origin',(2.08003424818211,1.04976132376486E-033,0.));
#233=CARTESIAN_POINT('',(2.5,1.435,0.));
#234=CARTESIAN_POINT('Origin',(2.5,1.26171158561731E-033,0.));
#235=CARTESIAN_POINT('Origin',(0.469377863789662,2.36887795510287E-034,
0.));
#236=CARTESIAN_POINT('',(0.469377863789662,1.63,-4.99043570652546E-016));
#237=CARTESIAN_POINT('Origin',(0.469377863789662,2.36887795510287E-034,
0.));
#238=CARTESIAN_POINT('Origin',(0.245034248182109,1.23665019921757E-034,
0.));
#239=CARTESIAN_POINT('',(-3.05966975290397E-016,1.63,0.));
#240=CARTESIAN_POINT('Origin',(-3.05966975290397E-016,-1.54416831016071E-049,
0.));
#241=CARTESIAN_POINT('Origin',(2.02069063257456,1.01981151282707E-033,0.));
#242=CARTESIAN_POINT('',(1.97959088574822,1.50340151904196,-9.20567929064005E-017));
#243=CARTESIAN_POINT('Origin',(1.97959088574822,0.,-2.30141982266001E-016));
#244=CARTESIAN_POINT('',(2.02069063257456,1.5,-4.59242549680258E-016));
#245=CARTESIAN_POINT('Origin',(2.02069063257456,1.01981151282707E-033,0.));
#246=CARTESIAN_POINT('Origin',(1.25,6.30855792808653E-034,0.));
#247=CARTESIAN_POINT('',(0.520409114251783,1.74659848095804,-5.34741559775222E-016));
#248=CARTESIAN_POINT('Origin',(0.520409114251783,0.,-2.67370779887611E-016));
#249=CARTESIAN_POINT('Origin',(2.25,1.13554042705557E-033,0.));
#250=CARTESIAN_POINT('',(2.5,1.5,0.));
#251=CARTESIAN_POINT('Origin',(2.5,1.26171158561731E-033,0.));
#252=CARTESIAN_POINT('Origin',(0.479309367425444,2.41900072790234E-034,
0.));
#253=CARTESIAN_POINT('',(0.479309367425444,1.75,-1.07156594925393E-016));
#254=CARTESIAN_POINT('Origin',(0.479309367425444,2.41900072790234E-034,
0.));
#255=CARTESIAN_POINT('Origin',(0.25,1.2617115856173E-034,0.));
#256=CARTESIAN_POINT('',(-3.49676543189026E-016,1.75,0.));
#257=CARTESIAN_POINT('Origin',(-3.49676543189026E-016,-1.76476378304082E-049,
0.));
#258=CARTESIAN_POINT('Origin',(2.5,1.435,0.));
#259=CARTESIAN_POINT('Origin',(-3.49676543189026E-016,1.75,0.));
#260=UNCERTAINTY_MEASURE_WITH_UNIT(LENGTH_MEASURE(0.000393700787401575),
#264,'DISTANCE_ACCURACY_VALUE',
'Maximum model space distance between geometric entities at asserted c
onnectivities');
#261=UNCERTAINTY_MEASURE_WITH_UNIT(LENGTH_MEASURE(1.E-006),#265,
'DISTANCE_ACCURACY_VALUE',
'Maximum model space distance between geometric entities at asserted c
onnectivities');
#262=(
GEOMETRIC_REPRESENTATION_CONTEXT(3)
GLOBAL_UNCERTAINTY_ASSIGNED_CONTEXT((#260))
GLOBAL_UNIT_ASSIGNED_CONTEXT((#264,#270,#267))
REPRESENTATION_CONTEXT('','3D')
);
#263=(
GEOMETRIC_REPRESENTATION_CONTEXT(3)
GLOBAL_UNCERTAINTY_ASSIGNED_CONTEXT((#261))
GLOBAL_UNIT_ASSIGNED_CONTEXT((#265,#270,#267))
REPRESENTATION_CONTEXT('','3D')
);
#264=(
CONVERSION_BASED_UNIT('__CONSTANT UNIT inch',#266)
LENGTH_UNIT()
NAMED_UNIT(#269)
);
#265=(
LENGTH_UNIT()
NAMED_UNIT(*)
SI_UNIT(.MILLI.,.METRE.)
);
#266=LENGTH_MEASURE_WITH_UNIT(LENGTH_MEASURE(25.4),#265);
#267=(
NAMED_UNIT(*)
SI_UNIT($,.STERADIAN.)
SOLID_ANGLE_UNIT()
);
#268=DIMENSIONAL_EXPONENTS(0.,0.,0.,0.,0.,0.,0.);
#269=DIMENSIONAL_EXPONENTS(1.,0.,0.,0.,0.,0.,0.);
#270=(
CONVERSION_BASED_UNIT('degree',#272)
NAMED_UNIT(#268)
PLANE_ANGLE_UNIT()
);
#271=(
NAMED_UNIT(*)
PLANE_ANGLE_UNIT()
SI_UNIT($,.RADIAN.)
);
#272=PLANE_ANGLE_MEASURE_WITH_UNIT(PLANE_ANGLE_MEASURE(0.01745329252),#271);
#273=SHAPE_DEFINITION_REPRESENTATION(#274,#275);
#274=PRODUCT_DEFINITION_SHAPE('',$,#277);
#275=SHAPE_REPRESENTATION('',(#148),#262);
#276=PRODUCT_DEFINITION_CONTEXT('part definition',#281,'design');
#277=PRODUCT_DEFINITION('19WX','19WX',#278,#276);
#278=PRODUCT_DEFINITION_FORMATION('',$,#283);
#279=PRODUCT_RELATED_PRODUCT_CATEGORY('19WX','19WX',(#283));
#280=APPLICATION_PROTOCOL_DEFINITION('international standard',
'automotive_design',2009,#281);
#281=APPLICATION_CONTEXT(
'Core Data for Automotive Mechanical Design Process');
#282=PRODUCT_CONTEXT('part definition',#281,'mechanical');
#283=PRODUCT('19WX','19WX',$,(#282));
#284=PRESENTATION_STYLE_ASSIGNMENT((#285));
#285=SURFACE_STYLE_USAGE(.BOTH.,#286);
#286=SURFACE_SIDE_STYLE($,(#287));
#287=SURFACE_STYLE_FILL_AREA(#288);
#288=FILL_AREA_STYLE($,(#289));
#289=FILL_AREA_STYLE_COLOUR($,#290);
#290=COLOUR_RGB('',0.749019607843137,0.749019607843137,0.749019607843137);
ENDSEC;
END-ISO-10303-21;
