ISO-10303-21;
HEADER;
/* Generated by software containing ST-Developer
 * from STEP Tools, Inc. (www.steptools.com) 
 */

FILE_DESCRIPTION(
/* description */ (''),
/* implementation_level */ '2;1');

FILE_NAME(
/* name */ 
'W:\\AUTOCAD\\AutoCad - Projects\\Numbered\\28WB\\STEP FILES\\28WB-15.
stp',
/* time_stamp */ '2022-05-19T08:06:37-04:00',
/* author */ ('marcus'),
/* organization */ (''),
/* preprocessor_version */ 'ST-DEVELOPER v18.1',
/* originating_system */ 'Autodesk Inventor 2020',
/* authorisation */ '');

FILE_SCHEMA (('AUTOMOTIVE_DESIGN { 1 0 10303 214 3 1 1 }'));
ENDSEC;

DATA;
#10=MECHANICAL_DESIGN_GEOMETRIC_PRESENTATION_REPRESENTATION('',(#13),#317);
#11=SHAPE_REPRESENTATION_RELATIONSHIP('SRR','None',#327,#12);
#12=ADVANCED_BREP_SHAPE_REPRESENTATION('',(#14),#316);
#13=STYLED_ITEM('',(#336),#14);
#14=MANIFOLD_SOLID_BREP('Solid1',#165);
#15=FACE_BOUND('',#35,.T.);
#16=FACE_BOUND('',#39,.T.);
#17=FACE_BOUND('',#41,.T.);
#18=PLANE('',#201);
#19=PLANE('',#208);
#20=PLANE('',#209);
#21=FACE_OUTER_BOUND('',#30,.T.);
#22=FACE_OUTER_BOUND('',#31,.T.);
#23=FACE_OUTER_BOUND('',#32,.T.);
#24=FACE_OUTER_BOUND('',#33,.T.);
#25=FACE_OUTER_BOUND('',#34,.T.);
#26=FACE_OUTER_BOUND('',#36,.T.);
#27=FACE_OUTER_BOUND('',#37,.T.);
#28=FACE_OUTER_BOUND('',#38,.T.);
#29=FACE_OUTER_BOUND('',#40,.T.);
#30=EDGE_LOOP('',(#106,#107,#108,#109,#110,#111,#112));
#31=EDGE_LOOP('',(#113,#114,#115,#116,#117,#118,#119));
#32=EDGE_LOOP('',(#120,#121,#122,#123,#124,#125,#126));
#33=EDGE_LOOP('',(#127,#128,#129,#130,#131));
#34=EDGE_LOOP('',(#132));
#35=EDGE_LOOP('',(#133));
#36=EDGE_LOOP('',(#134,#135,#136,#137,#138,#139));
#37=EDGE_LOOP('',(#140,#141,#142,#143,#144,#145));
#38=EDGE_LOOP('',(#146));
#39=EDGE_LOOP('',(#147));
#40=EDGE_LOOP('',(#148));
#41=EDGE_LOOP('',(#149));
#42=ELLIPSE('',#187,0.74143865720029,0.685);
#43=ELLIPSE('',#188,0.968736290225571,0.685);
#44=ELLIPSE('',#189,0.968736290225571,0.685);
#45=ELLIPSE('',#190,0.74143865720029,0.685);
#46=ELLIPSE('',#193,0.74143865720029,0.685);
#47=ELLIPSE('',#194,0.74143865720029,0.685);
#48=ELLIPSE('',#198,0.811794150219295,0.75);
#49=ELLIPSE('',#199,1.06066017177982,0.75);
#50=ELLIPSE('',#203,0.811794150219295,0.75);
#51=ELLIPSE('',#205,0.811794150219295,0.75);
#52=LINE('',#273,#58);
#53=LINE('',#285,#59);
#54=LINE('',#291,#60);
#55=LINE('',#298,#61);
#56=LINE('',#305,#62);
#57=LINE('',#310,#63);
#58=VECTOR('',#216,0.685);
#59=VECTOR('',#229,0.685);
#60=VECTOR('',#238,0.685);
#61=VECTOR('',#245,0.75);
#62=VECTOR('',#254,0.75);
#63=VECTOR('',#261,0.75);
#64=CIRCLE('',#186,0.685);
#65=CIRCLE('',#192,0.685);
#66=CIRCLE('',#196,0.685);
#67=CIRCLE('',#200,0.75);
#68=CIRCLE('',#204,0.75);
#69=CIRCLE('',#207,0.75);
#70=VERTEX_POINT('',#270);
#71=VERTEX_POINT('',#272);
#72=VERTEX_POINT('',#274);
#73=VERTEX_POINT('',#276);
#74=VERTEX_POINT('',#278);
#75=VERTEX_POINT('',#282);
#76=VERTEX_POINT('',#284);
#77=VERTEX_POINT('',#289);
#78=VERTEX_POINT('',#293);
#79=VERTEX_POINT('',#294);
#80=VERTEX_POINT('',#297);
#81=VERTEX_POINT('',#302);
#82=VERTEX_POINT('',#304);
#83=VERTEX_POINT('',#309);
#84=EDGE_CURVE('',#70,#70,#64,.T.);
#85=EDGE_CURVE('',#70,#71,#52,.T.);
#86=EDGE_CURVE('',#72,#71,#42,.T.);
#87=EDGE_CURVE('',#73,#72,#43,.T.);
#88=EDGE_CURVE('',#74,#73,#44,.T.);
#89=EDGE_CURVE('',#71,#74,#45,.T.);
#90=EDGE_CURVE('',#75,#75,#65,.T.);
#91=EDGE_CURVE('',#75,#76,#53,.T.);
#92=EDGE_CURVE('',#76,#72,#46,.T.);
#93=EDGE_CURVE('',#74,#76,#47,.T.);
#94=EDGE_CURVE('',#77,#77,#66,.T.);
#95=EDGE_CURVE('',#77,#73,#54,.T.);
#96=EDGE_CURVE('',#78,#79,#48,.T.);
#97=EDGE_CURVE('',#79,#78,#49,.T.);
#98=EDGE_CURVE('',#79,#80,#55,.T.);
#99=EDGE_CURVE('',#80,#80,#67,.T.);
#100=EDGE_CURVE('',#79,#81,#50,.T.);
#101=EDGE_CURVE('',#81,#82,#56,.T.);
#102=EDGE_CURVE('',#82,#82,#68,.T.);
#103=EDGE_CURVE('',#81,#78,#51,.T.);
#104=EDGE_CURVE('',#79,#83,#57,.T.);
#105=EDGE_CURVE('',#83,#83,#69,.T.);
#106=ORIENTED_EDGE('',*,*,#84,.F.);
#107=ORIENTED_EDGE('',*,*,#85,.T.);
#108=ORIENTED_EDGE('',*,*,#86,.F.);
#109=ORIENTED_EDGE('',*,*,#87,.F.);
#110=ORIENTED_EDGE('',*,*,#88,.F.);
#111=ORIENTED_EDGE('',*,*,#89,.F.);
#112=ORIENTED_EDGE('',*,*,#85,.F.);
#113=ORIENTED_EDGE('',*,*,#90,.F.);
#114=ORIENTED_EDGE('',*,*,#91,.T.);
#115=ORIENTED_EDGE('',*,*,#92,.T.);
#116=ORIENTED_EDGE('',*,*,#86,.T.);
#117=ORIENTED_EDGE('',*,*,#89,.T.);
#118=ORIENTED_EDGE('',*,*,#93,.T.);
#119=ORIENTED_EDGE('',*,*,#91,.F.);
#120=ORIENTED_EDGE('',*,*,#94,.F.);
#121=ORIENTED_EDGE('',*,*,#95,.T.);
#122=ORIENTED_EDGE('',*,*,#87,.T.);
#123=ORIENTED_EDGE('',*,*,#92,.F.);
#124=ORIENTED_EDGE('',*,*,#93,.F.);
#125=ORIENTED_EDGE('',*,*,#88,.T.);
#126=ORIENTED_EDGE('',*,*,#95,.F.);
#127=ORIENTED_EDGE('',*,*,#96,.F.);
#128=ORIENTED_EDGE('',*,*,#97,.F.);
#129=ORIENTED_EDGE('',*,*,#98,.T.);
#130=ORIENTED_EDGE('',*,*,#99,.T.);
#131=ORIENTED_EDGE('',*,*,#98,.F.);
#132=ORIENTED_EDGE('',*,*,#99,.F.);
#133=ORIENTED_EDGE('',*,*,#94,.T.);
#134=ORIENTED_EDGE('',*,*,#96,.T.);
#135=ORIENTED_EDGE('',*,*,#100,.T.);
#136=ORIENTED_EDGE('',*,*,#101,.T.);
#137=ORIENTED_EDGE('',*,*,#102,.F.);
#138=ORIENTED_EDGE('',*,*,#101,.F.);
#139=ORIENTED_EDGE('',*,*,#103,.T.);
#140=ORIENTED_EDGE('',*,*,#97,.T.);
#141=ORIENTED_EDGE('',*,*,#103,.F.);
#142=ORIENTED_EDGE('',*,*,#100,.F.);
#143=ORIENTED_EDGE('',*,*,#104,.T.);
#144=ORIENTED_EDGE('',*,*,#105,.T.);
#145=ORIENTED_EDGE('',*,*,#104,.F.);
#146=ORIENTED_EDGE('',*,*,#105,.F.);
#147=ORIENTED_EDGE('',*,*,#84,.T.);
#148=ORIENTED_EDGE('',*,*,#102,.T.);
#149=ORIENTED_EDGE('',*,*,#90,.T.);
#150=CYLINDRICAL_SURFACE('',#185,0.685);
#151=CYLINDRICAL_SURFACE('',#191,0.685);
#152=CYLINDRICAL_SURFACE('',#195,0.685);
#153=CYLINDRICAL_SURFACE('',#197,0.75);
#154=CYLINDRICAL_SURFACE('',#202,0.75);
#155=CYLINDRICAL_SURFACE('',#206,0.75);
#156=ADVANCED_FACE('',(#21),#150,.F.);
#157=ADVANCED_FACE('',(#22),#151,.F.);
#158=ADVANCED_FACE('',(#23),#152,.F.);
#159=ADVANCED_FACE('',(#24),#153,.T.);
#160=ADVANCED_FACE('',(#25,#15),#18,.F.);
#161=ADVANCED_FACE('',(#26),#154,.T.);
#162=ADVANCED_FACE('',(#27),#155,.T.);
#163=ADVANCED_FACE('',(#28,#16),#19,.F.);
#164=ADVANCED_FACE('',(#29,#17),#20,.F.);
#165=CLOSED_SHELL('',(#156,#157,#158,#159,#160,#161,#162,#163,#164));
#166=DERIVED_UNIT_ELEMENT(#168,1.);
#167=DERIVED_UNIT_ELEMENT(#321,3.);
#168=(
MASS_UNIT()
NAMED_UNIT(*)
SI_UNIT($,.GRAM.)
);
#169=DERIVED_UNIT((#166,#167));
#170=MEASURE_REPRESENTATION_ITEM('density measure',
POSITIVE_RATIO_MEASURE(1.),#169);
#171=PROPERTY_DEFINITION_REPRESENTATION(#176,#173);
#172=PROPERTY_DEFINITION_REPRESENTATION(#177,#174);
#173=REPRESENTATION('material name',(#175),#316);
#174=REPRESENTATION('density',(#170),#316);
#175=DESCRIPTIVE_REPRESENTATION_ITEM('Generic','Generic');
#176=PROPERTY_DEFINITION('material property','material name',#329);
#177=PROPERTY_DEFINITION('material property','density of part',#329);
#178=DATE_TIME_ROLE('creation_date');
#179=APPLIED_DATE_AND_TIME_ASSIGNMENT(#180,#178,(#329));
#180=DATE_AND_TIME(#181,#182);
#181=CALENDAR_DATE(2018,14,5);
#182=LOCAL_TIME(17,30,7.,#183);
#183=COORDINATED_UNIVERSAL_TIME_OFFSET(0,0,.BEHIND.);
#184=AXIS2_PLACEMENT_3D('placement',#268,#210,#211);
#185=AXIS2_PLACEMENT_3D('',#269,#212,#213);
#186=AXIS2_PLACEMENT_3D('',#271,#214,#215);
#187=AXIS2_PLACEMENT_3D('',#275,#217,#218);
#188=AXIS2_PLACEMENT_3D('',#277,#219,#220);
#189=AXIS2_PLACEMENT_3D('',#279,#221,#222);
#190=AXIS2_PLACEMENT_3D('',#280,#223,#224);
#191=AXIS2_PLACEMENT_3D('',#281,#225,#226);
#192=AXIS2_PLACEMENT_3D('',#283,#227,#228);
#193=AXIS2_PLACEMENT_3D('',#286,#230,#231);
#194=AXIS2_PLACEMENT_3D('',#287,#232,#233);
#195=AXIS2_PLACEMENT_3D('',#288,#234,#235);
#196=AXIS2_PLACEMENT_3D('',#290,#236,#237);
#197=AXIS2_PLACEMENT_3D('',#292,#239,#240);
#198=AXIS2_PLACEMENT_3D('',#295,#241,#242);
#199=AXIS2_PLACEMENT_3D('',#296,#243,#244);
#200=AXIS2_PLACEMENT_3D('',#299,#246,#247);
#201=AXIS2_PLACEMENT_3D('',#300,#248,#249);
#202=AXIS2_PLACEMENT_3D('',#301,#250,#251);
#203=AXIS2_PLACEMENT_3D('',#303,#252,#253);
#204=AXIS2_PLACEMENT_3D('',#306,#255,#256);
#205=AXIS2_PLACEMENT_3D('',#307,#257,#258);
#206=AXIS2_PLACEMENT_3D('',#308,#259,#260);
#207=AXIS2_PLACEMENT_3D('',#311,#262,#263);
#208=AXIS2_PLACEMENT_3D('',#312,#264,#265);
#209=AXIS2_PLACEMENT_3D('',#313,#266,#267);
#210=DIRECTION('axis',(0.,0.,1.));
#211=DIRECTION('refdir',(1.,0.,0.));
#212=DIRECTION('center_axis',(0.707106781186548,-0.707106781186548,0.));
#213=DIRECTION('ref_axis',(0.707106781186547,0.707106781186548,0.));
#214=DIRECTION('center_axis',(0.707106781186547,-0.707106781186548,0.));
#215=DIRECTION('ref_axis',(0.707106781186547,0.707106781186548,0.));
#216=DIRECTION('',(0.707106781186548,-0.707106781186548,0.));
#217=DIRECTION('center_axis',(-0.382683432365089,0.923879532511287,0.));
#218=DIRECTION('ref_axis',(0.923879532511287,0.382683432365088,0.));
#219=DIRECTION('center_axis',(-1.,-3.60961540015811E-16,0.));
#220=DIRECTION('ref_axis',(-2.70721155011858E-16,1.,0.));
#221=DIRECTION('center_axis',(-1.,-3.60961540015811E-16,0.));
#222=DIRECTION('ref_axis',(-2.70721155011858E-16,1.,0.));
#223=DIRECTION('center_axis',(-0.382683432365089,0.923879532511287,0.));
#224=DIRECTION('ref_axis',(0.923879532511287,0.382683432365088,0.));
#225=DIRECTION('center_axis',(0.,1.,0.));
#226=DIRECTION('ref_axis',(-1.,0.,0.));
#227=DIRECTION('center_axis',(0.,1.,0.));
#228=DIRECTION('ref_axis',(-1.,0.,0.));
#229=DIRECTION('',(0.,1.,0.));
#230=DIRECTION('center_axis',(0.382683432365089,0.923879532511287,0.));
#231=DIRECTION('ref_axis',(0.923879532511287,-0.382683432365089,0.));
#232=DIRECTION('center_axis',(0.382683432365089,0.923879532511287,0.));
#233=DIRECTION('ref_axis',(0.923879532511287,-0.382683432365089,0.));
#234=DIRECTION('center_axis',(-0.707106781186548,-0.707106781186547,0.));
#235=DIRECTION('ref_axis',(0.707106781186547,-0.707106781186548,0.));
#236=DIRECTION('center_axis',(-0.707106781186547,-0.707106781186548,0.));
#237=DIRECTION('ref_axis',(0.707106781186547,-0.707106781186548,0.));
#238=DIRECTION('',(-0.707106781186548,-0.707106781186547,0.));
#239=DIRECTION('center_axis',(-0.707106781186547,-0.707106781186548,0.));
#240=DIRECTION('ref_axis',(0.,0.,-1.));
#241=DIRECTION('center_axis',(-0.38268343236509,-0.923879532511287,0.));
#242=DIRECTION('ref_axis',(0.923879532511287,-0.38268343236509,0.));
#243=DIRECTION('center_axis',(-1.,3.29678206547774E-16,0.));
#244=DIRECTION('ref_axis',(-3.29678206547774E-16,-1.,0.));
#245=DIRECTION('',(0.707106781186547,0.707106781186548,0.));
#246=DIRECTION('center_axis',(-0.707106781186547,-0.707106781186548,0.));
#247=DIRECTION('ref_axis',(0.,0.,-1.));
#248=DIRECTION('center_axis',(-0.707106781186547,-0.707106781186548,0.));
#249=DIRECTION('ref_axis',(0.,0.,1.));
#250=DIRECTION('center_axis',(0.,1.,0.));
#251=DIRECTION('ref_axis',(1.,0.,0.));
#252=DIRECTION('center_axis',(0.38268343236509,-0.923879532511287,0.));
#253=DIRECTION('ref_axis',(0.923879532511287,0.38268343236509,0.));
#254=DIRECTION('',(0.,-1.,0.));
#255=DIRECTION('center_axis',(0.,-1.,0.));
#256=DIRECTION('ref_axis',(1.,0.,0.));
#257=DIRECTION('center_axis',(0.38268343236509,-0.923879532511287,0.));
#258=DIRECTION('ref_axis',(0.923879532511287,0.38268343236509,0.));
#259=DIRECTION('center_axis',(0.707106781186547,-0.707106781186548,0.));
#260=DIRECTION('ref_axis',(0.,0.,-1.));
#261=DIRECTION('',(-0.707106781186547,0.707106781186548,0.));
#262=DIRECTION('center_axis',(0.707106781186547,-0.707106781186548,0.));
#263=DIRECTION('ref_axis',(0.,0.,-1.));
#264=DIRECTION('center_axis',(0.707106781186547,-0.707106781186548,0.));
#265=DIRECTION('ref_axis',(0.,0.,-1.));
#266=DIRECTION('center_axis',(0.,1.,0.));
#267=DIRECTION('ref_axis',(0.,0.,1.));
#268=CARTESIAN_POINT('',(0.,0.,0.));
#269=CARTESIAN_POINT('Origin',(-2.12132034355964,2.12132034355964,0.));
#270=CARTESIAN_POINT('',(-2.60568848867243,1.63695219844686,8.38883057415937E-17));
#271=CARTESIAN_POINT('Origin',(-2.12132034355964,2.12132034355964,0.));
#272=CARTESIAN_POINT('',(-0.685000000000001,-0.283736290225569,-8.38883057415938E-17));
#273=CARTESIAN_POINT('',(-2.60568848867243,1.63695219844686,-8.38883057415937E-17));
#274=CARTESIAN_POINT('',(-6.99353086378053E-16,6.99353086378053E-16,-0.685));
#275=CARTESIAN_POINT('Origin',(-3.49676543189026E-16,6.99353086378051E-16,
0.));
#276=CARTESIAN_POINT('',(-6.11933950580795E-16,0.968736290225571,-8.38883057415938E-17));
#277=CARTESIAN_POINT('Origin',(-3.49676543189026E-16,6.99353086378051E-16,
0.));
#278=CARTESIAN_POINT('',(-6.99353086378053E-16,6.99353086378053E-16,0.685));
#279=CARTESIAN_POINT('Origin',(-3.49676543189026E-16,6.99353086378051E-16,
0.));
#280=CARTESIAN_POINT('Origin',(-3.49676543189026E-16,6.99353086378051E-16,
0.));
#281=CARTESIAN_POINT('Origin',(0.,-3.,0.));
#282=CARTESIAN_POINT('',(0.685,-3.,8.38883057415937E-17));
#283=CARTESIAN_POINT('Origin',(0.,-3.,0.));
#284=CARTESIAN_POINT('',(0.685000000000001,-0.283736290225569,-8.38883057415938E-17));
#285=CARTESIAN_POINT('',(0.685,-3.,-8.38883057415937E-17));
#286=CARTESIAN_POINT('Origin',(0.,6.99353086378051E-16,0.));
#287=CARTESIAN_POINT('Origin',(0.,6.99353086378051E-16,0.));
#288=CARTESIAN_POINT('Origin',(2.12132034355964,2.12132034355964,0.));
#289=CARTESIAN_POINT('',(1.63695219844686,2.60568848867243,8.38883057415937E-17));
#290=CARTESIAN_POINT('Origin',(2.12132034355964,2.12132034355964,0.));
#291=CARTESIAN_POINT('',(1.63695219844686,2.60568848867243,-8.38883057415937E-17));
#292=CARTESIAN_POINT('Origin',(2.12132034355964,2.12132034355964,0.));
#293=CARTESIAN_POINT('',(0.,0.,-0.75));
#294=CARTESIAN_POINT('',(-6.4946704217662E-17,-6.4946704217662E-17,0.75));
#295=CARTESIAN_POINT('Origin',(-6.99353086378051E-16,-3.49676543189026E-16,
0.));
#296=CARTESIAN_POINT('Origin',(-3.49676543189026E-16,0.,0.));
#297=CARTESIAN_POINT('',(2.12132034355964,2.12132034355964,0.75));
#298=CARTESIAN_POINT('',(2.12132034355964,2.12132034355964,0.75));
#299=CARTESIAN_POINT('Origin',(2.12132034355964,2.12132034355964,0.));
#300=CARTESIAN_POINT('Origin',(2.12132034355964,2.12132034355964,-3.82469159145332E-17));
#301=CARTESIAN_POINT('Origin',(0.,-3.,0.));
#302=CARTESIAN_POINT('',(-0.749999999999999,-0.310660171779822,9.18485099360514E-17));
#303=CARTESIAN_POINT('Origin',(3.49676543189026E-16,-3.49676543189026E-16,
0.));
#304=CARTESIAN_POINT('',(-0.75,-3.,9.18485099360515E-17));
#305=CARTESIAN_POINT('',(-0.75,-3.,9.18485099360515E-17));
#306=CARTESIAN_POINT('Origin',(0.,-3.,0.));
#307=CARTESIAN_POINT('Origin',(3.49676543189026E-16,-3.49676543189026E-16,
0.));
#308=CARTESIAN_POINT('Origin',(-2.12132034355964,2.12132034355964,0.));
#309=CARTESIAN_POINT('',(-2.12132034355964,2.12132034355964,0.75));
#310=CARTESIAN_POINT('',(-2.12132034355964,2.12132034355964,0.75));
#311=CARTESIAN_POINT('Origin',(-2.12132034355964,2.12132034355964,0.));
#312=CARTESIAN_POINT('Origin',(-2.12132034355964,2.12132034355964,-3.82469159145332E-17));
#313=CARTESIAN_POINT('Origin',(3.82469159145332E-17,-3.,1.52964367099311E-17));
#314=UNCERTAINTY_MEASURE_WITH_UNIT(LENGTH_MEASURE(0.000393700787401575),
#319,'DISTANCE_ACCURACY_VALUE',
'Maximum model space distance between geometric entities at asserted c
onnectivities');
#315=UNCERTAINTY_MEASURE_WITH_UNIT(LENGTH_MEASURE(0.000393700787401575),
#319,'DISTANCE_ACCURACY_VALUE',
'Maximum model space distance between geometric entities at asserted c
onnectivities');
#316=(
GEOMETRIC_REPRESENTATION_CONTEXT(3)
GLOBAL_UNCERTAINTY_ASSIGNED_CONTEXT((#314))
GLOBAL_UNIT_ASSIGNED_CONTEXT((#319,#323,#324))
REPRESENTATION_CONTEXT('','3D')
);
#317=(
GEOMETRIC_REPRESENTATION_CONTEXT(3)
GLOBAL_UNCERTAINTY_ASSIGNED_CONTEXT((#315))
GLOBAL_UNIT_ASSIGNED_CONTEXT((#319,#323,#324))
REPRESENTATION_CONTEXT('','3D')
);
#318=DIMENSIONAL_EXPONENTS(1.,0.,0.,0.,0.,0.,0.);
#319=(
CONVERSION_BASED_UNIT('inch',#322)
LENGTH_UNIT()
NAMED_UNIT(#318)
);
#320=(
LENGTH_UNIT()
NAMED_UNIT(*)
SI_UNIT(.MILLI.,.METRE.)
);
#321=(
LENGTH_UNIT()
NAMED_UNIT(*)
SI_UNIT(.CENTI.,.METRE.)
);
#322=LENGTH_MEASURE_WITH_UNIT(LENGTH_MEASURE(25.4),#320);
#323=(
NAMED_UNIT(*)
PLANE_ANGLE_UNIT()
SI_UNIT($,.RADIAN.)
);
#324=(
NAMED_UNIT(*)
SI_UNIT($,.STERADIAN.)
SOLID_ANGLE_UNIT()
);
#325=SHAPE_DEFINITION_REPRESENTATION(#326,#327);
#326=PRODUCT_DEFINITION_SHAPE('',$,#329);
#327=SHAPE_REPRESENTATION('',(#184),#316);
#328=PRODUCT_DEFINITION_CONTEXT('part definition',#333,'design');
#329=PRODUCT_DEFINITION('28WB-15','28WB-15',#330,#328);
#330=PRODUCT_DEFINITION_FORMATION('',$,#335);
#331=PRODUCT_RELATED_PRODUCT_CATEGORY('28WB-15','28WB-15',(#335));
#332=APPLICATION_PROTOCOL_DEFINITION('international standard',
'automotive_design',2009,#333);
#333=APPLICATION_CONTEXT(
'Core Data for Automotive Mechanical Design Process');
#334=PRODUCT_CONTEXT('part definition',#333,'mechanical');
#335=PRODUCT('28WB-15','28WB-15',$,(#334));
#336=PRESENTATION_STYLE_ASSIGNMENT((#337));
#337=SURFACE_STYLE_USAGE(.BOTH.,#340);
#338=SURFACE_STYLE_RENDERING_WITH_PROPERTIES($,#344,(#339));
#339=SURFACE_STYLE_TRANSPARENT(0.);
#340=SURFACE_SIDE_STYLE('',(#341,#338));
#341=SURFACE_STYLE_FILL_AREA(#342);
#342=FILL_AREA_STYLE('',(#343));
#343=FILL_AREA_STYLE_COLOUR('',#344);
#344=COLOUR_RGB('',0.749019607843137,0.749019607843137,0.749019607843137);
ENDSEC;
END-ISO-10303-21;
