ISO-10303-21;
HEADER;
/* Generated by software containing ST-Developer
 * from STEP Tools, Inc. (www.steptools.com) 
 */

FILE_DESCRIPTION(
/* description */ (''),
/* implementation_level */ '2;1');

FILE_NAME(
/* name */ 
'W:\\AUTOCAD\\AutoCad - Projects\\Numbered\\2WU\\STEP FILES\\2WU-1.5.s
tp',
/* time_stamp */ '2022-05-10T10:21:14-04:00',
/* author */ ('marcus'),
/* organization */ (''),
/* preprocessor_version */ 'ST-DEVELOPER v18.1',
/* originating_system */ 'Autodesk Inventor 2020',
/* authorisation */ '');

FILE_SCHEMA (('AUTOMOTIVE_DESIGN { 1 0 10303 214 3 1 1 }'));
ENDSEC;

DATA;
#10=MECHANICAL_DESIGN_GEOMETRIC_PRESENTATION_REPRESENTATION('',(#13),#215);
#11=SHAPE_REPRESENTATION_RELATIONSHIP('SRR','None',#225,#12);
#12=ADVANCED_BREP_SHAPE_REPRESENTATION('',(#14),#214);
#13=STYLED_ITEM('',(#234),#14);
#14=MANIFOLD_SOLID_BREP('Solid1',#63);
#15=FACE_BOUND('',#26,.T.);
#16=FACE_BOUND('',#28,.T.);
#17=PLANE('',#89);
#18=PLANE('',#90);
#19=FACE_OUTER_BOUND('',#23,.T.);
#20=FACE_OUTER_BOUND('',#24,.T.);
#21=FACE_OUTER_BOUND('',#25,.T.);
#22=FACE_OUTER_BOUND('',#27,.T.);
#23=EDGE_LOOP('',(#45,#46,#47,#48));
#24=EDGE_LOOP('',(#49,#50,#51,#52));
#25=EDGE_LOOP('',(#53));
#26=EDGE_LOOP('',(#54));
#27=EDGE_LOOP('',(#55));
#28=EDGE_LOOP('',(#56));
#29=CIRCLE('',#83,0.685);
#30=CIRCLE('',#84,1.565);
#31=CIRCLE('',#85,0.685);
#32=CIRCLE('',#86,0.75);
#33=CIRCLE('',#87,1.5);
#34=CIRCLE('',#88,0.75);
#35=VERTEX_POINT('',#155);
#36=VERTEX_POINT('',#157);
#37=VERTEX_POINT('',#205);
#38=VERTEX_POINT('',#207);
#39=EDGE_CURVE('',#35,#35,#29,.T.);
#40=EDGE_CURVE('',#35,#36,#30,.T.);
#41=EDGE_CURVE('',#36,#36,#31,.T.);
#42=EDGE_CURVE('',#37,#37,#32,.T.);
#43=EDGE_CURVE('',#37,#38,#33,.T.);
#44=EDGE_CURVE('',#38,#38,#34,.T.);
#45=ORIENTED_EDGE('',*,*,#39,.F.);
#46=ORIENTED_EDGE('',*,*,#40,.T.);
#47=ORIENTED_EDGE('',*,*,#41,.F.);
#48=ORIENTED_EDGE('',*,*,#40,.F.);
#49=ORIENTED_EDGE('',*,*,#42,.F.);
#50=ORIENTED_EDGE('',*,*,#43,.T.);
#51=ORIENTED_EDGE('',*,*,#44,.F.);
#52=ORIENTED_EDGE('',*,*,#43,.F.);
#53=ORIENTED_EDGE('',*,*,#44,.T.);
#54=ORIENTED_EDGE('',*,*,#41,.T.);
#55=ORIENTED_EDGE('',*,*,#42,.T.);
#56=ORIENTED_EDGE('',*,*,#39,.T.);
#57=(
BOUNDED_SURFACE()
B_SPLINE_SURFACE(2,2,((#110,#111,#112,#113,#114),(#115,#116,#117,#118,#119),
(#120,#121,#122,#123,#124),(#125,#126,#127,#128,#129),(#130,#131,#132,#133,
#134),(#135,#136,#137,#138,#139),(#140,#141,#142,#143,#144),(#145,#146,
#147,#148,#149),(#150,#151,#152,#153,#154)),.UNSPECIFIED.,.T.,.F.,.F.)
B_SPLINE_SURFACE_WITH_KNOTS((3,2,2,2,3),(3,2,3),(-3.14159265358979,-1.5707963267949,
0.,1.5707963267949,3.14159265358979),(0.,1.57079630098533,3.14159260197066),
 .UNSPECIFIED.)
GEOMETRIC_REPRESENTATION_ITEM()
RATIONAL_B_SPLINE_SURFACE(((1.,0.707106790311608,1.,0.707106790311608,1.),
(0.707106781186547,0.500000006452392,0.707106781186547,0.500000006452392,
0.707106781186547),(1.,0.707106790311608,1.,0.707106790311608,1.),(0.707106781186548,
0.500000006452392,0.707106781186548,0.500000006452392,0.707106781186548),
(1.,0.707106790311608,1.,0.707106790311608,1.),(0.707106781186548,0.500000006452392,
0.707106781186548,0.500000006452392,0.707106781186548),(1.,0.707106790311608,
1.,0.707106790311608,1.),(0.707106781186547,0.500000006452392,0.707106781186547,
0.500000006452392,0.707106781186547),(1.,0.707106790311608,1.,0.707106790311608,
1.)))
REPRESENTATION_ITEM('')
SURFACE()
);
#58=(
BOUNDED_SURFACE()
B_SPLINE_SURFACE(2,2,((#160,#161,#162,#163,#164),(#165,#166,#167,#168,#169),
(#170,#171,#172,#173,#174),(#175,#176,#177,#178,#179),(#180,#181,#182,#183,
#184),(#185,#186,#187,#188,#189),(#190,#191,#192,#193,#194),(#195,#196,
#197,#198,#199),(#200,#201,#202,#203,#204)),.UNSPECIFIED.,.T.,.F.,.F.)
B_SPLINE_SURFACE_WITH_KNOTS((3,2,2,2,3),(3,2,3),(-3.14159265358979,-1.5707963267949,
0.,1.5707963267949,3.14159265358979),(0.,1.57079630098533,3.14159260197066),
 .UNSPECIFIED.)
GEOMETRIC_REPRESENTATION_ITEM()
RATIONAL_B_SPLINE_SURFACE(((1.,0.707106790311608,1.,0.707106790311608,1.),
(0.707106781186547,0.500000006452392,0.707106781186547,0.500000006452392,
0.707106781186547),(1.,0.707106790311608,1.,0.707106790311608,1.),(0.707106781186548,
0.500000006452392,0.707106781186548,0.500000006452392,0.707106781186548),
(1.,0.707106790311608,1.,0.707106790311608,1.),(0.707106781186548,0.500000006452392,
0.707106781186548,0.500000006452392,0.707106781186548),(1.,0.707106790311608,
1.,0.707106790311608,1.),(0.707106781186547,0.500000006452392,0.707106781186547,
0.500000006452392,0.707106781186547),(1.,0.707106790311608,1.,0.707106790311608,
1.)))
REPRESENTATION_ITEM('')
SURFACE()
);
#59=ADVANCED_FACE('',(#19),#57,.F.);
#60=ADVANCED_FACE('',(#20),#58,.T.);
#61=ADVANCED_FACE('',(#21,#15),#17,.T.);
#62=ADVANCED_FACE('',(#22,#16),#18,.F.);
#63=CLOSED_SHELL('',(#59,#60,#61,#62));
#64=DERIVED_UNIT_ELEMENT(#66,1.);
#65=DERIVED_UNIT_ELEMENT(#219,3.);
#66=(
MASS_UNIT()
NAMED_UNIT(*)
SI_UNIT($,.GRAM.)
);
#67=DERIVED_UNIT((#64,#65));
#68=MEASURE_REPRESENTATION_ITEM('density measure',
POSITIVE_RATIO_MEASURE(1.),#67);
#69=PROPERTY_DEFINITION_REPRESENTATION(#74,#71);
#70=PROPERTY_DEFINITION_REPRESENTATION(#75,#72);
#71=REPRESENTATION('material name',(#73),#214);
#72=REPRESENTATION('density',(#68),#214);
#73=DESCRIPTIVE_REPRESENTATION_ITEM('Generic','Generic');
#74=PROPERTY_DEFINITION('material property','material name',#227);
#75=PROPERTY_DEFINITION('material property','density of part',#227);
#76=DATE_TIME_ROLE('creation_date');
#77=APPLIED_DATE_AND_TIME_ASSIGNMENT(#78,#76,(#227));
#78=DATE_AND_TIME(#79,#80);
#79=CALENDAR_DATE(2016,12,9);
#80=LOCAL_TIME(12,5,20.,#81);
#81=COORDINATED_UNIVERSAL_TIME_OFFSET(0,0,.BEHIND.);
#82=AXIS2_PLACEMENT_3D('placement',#109,#91,#92);
#83=AXIS2_PLACEMENT_3D('',#156,#93,#94);
#84=AXIS2_PLACEMENT_3D('',#158,#95,#96);
#85=AXIS2_PLACEMENT_3D('',#159,#97,#98);
#86=AXIS2_PLACEMENT_3D('',#206,#99,#100);
#87=AXIS2_PLACEMENT_3D('',#208,#101,#102);
#88=AXIS2_PLACEMENT_3D('',#209,#103,#104);
#89=AXIS2_PLACEMENT_3D('',#210,#105,#106);
#90=AXIS2_PLACEMENT_3D('',#211,#107,#108);
#91=DIRECTION('axis',(0.,0.,1.));
#92=DIRECTION('refdir',(1.,0.,0.));
#93=DIRECTION('center_axis',(1.,0.,0.));
#94=DIRECTION('ref_axis',(0.,-1.,0.));
#95=DIRECTION('center_axis',(0.,0.,1.));
#96=DIRECTION('ref_axis',(3.81577308554314E-8,-0.999999999999999,0.));
#97=DIRECTION('center_axis',(0.999999999999999,-5.16191366432066E-8,0.));
#98=DIRECTION('ref_axis',(5.16191366432066E-8,0.999999999999999,0.));
#99=DIRECTION('center_axis',(-1.,0.,0.));
#100=DIRECTION('ref_axis',(0.,-1.,0.));
#101=DIRECTION('center_axis',(0.,0.,1.));
#102=DIRECTION('ref_axis',(3.98112322927158E-8,-0.999999999999999,0.));
#103=DIRECTION('center_axis',(-0.999999999999999,5.30816427594187E-8,0.));
#104=DIRECTION('ref_axis',(5.30816427594187E-8,0.999999999999999,0.));
#105=DIRECTION('center_axis',(-0.999999999999999,5.30816427594187E-8,0.));
#106=DIRECTION('ref_axis',(0.,0.,-1.));
#107=DIRECTION('center_axis',(1.,0.,0.));
#108=DIRECTION('ref_axis',(0.,0.,-1.));
#109=CARTESIAN_POINT('',(0.,0.,0.));
#110=CARTESIAN_POINT('Ctrl Pts',(0.,0.685,8.38883057415937E-17));
#111=CARTESIAN_POINT('Ctrl Pts',(1.56499995960803,0.685000059716847,8.38883057415937E-17));
#112=CARTESIAN_POINT('Ctrl Pts',(1.56499994028315,2.25000001932487,8.38883057415937E-17));
#113=CARTESIAN_POINT('Ctrl Pts',(1.56499992095828,3.8149999789329,8.38883057415937E-17));
#114=CARTESIAN_POINT('Ctrl Pts',(-3.86497476238423E-8,3.815,8.38883057415937E-17));
#115=CARTESIAN_POINT('Ctrl Pts',(0.,0.685,0.685));
#116=CARTESIAN_POINT('Ctrl Pts',(1.56499995960803,0.685000059716846,0.685));
#117=CARTESIAN_POINT('Ctrl Pts',(1.56499994028315,2.25000001932487,0.685));
#118=CARTESIAN_POINT('Ctrl Pts',(1.56499992095828,3.8149999789329,0.685));
#119=CARTESIAN_POINT('Ctrl Pts',(-3.86497476238423E-8,3.815,0.685));
#120=CARTESIAN_POINT('Ctrl Pts',(0.,0.,0.685));
#121=CARTESIAN_POINT('Ctrl Pts',(2.24999994192847,5.9716846690691E-8,0.685));
#122=CARTESIAN_POINT('Ctrl Pts',(2.24999994028315,2.25000000164532,0.685));
#123=CARTESIAN_POINT('Ctrl Pts',(2.24999993863783,4.49999994357379,0.685));
#124=CARTESIAN_POINT('Ctrl Pts',(-3.29063902324579E-9,4.5,0.685));
#125=CARTESIAN_POINT('Ctrl Pts',(0.,-0.685,0.685));
#126=CARTESIAN_POINT('Ctrl Pts',(2.93499992424892,-0.684999940283153,0.685));
#127=CARTESIAN_POINT('Ctrl Pts',(2.93499994028315,2.24999998396576,0.685));
#128=CARTESIAN_POINT('Ctrl Pts',(2.93499995631739,5.18499990821468,0.685));
#129=CARTESIAN_POINT('Ctrl Pts',(3.20684695773507E-8,5.185,0.685));
#130=CARTESIAN_POINT('Ctrl Pts',(0.,-0.685,0.));
#131=CARTESIAN_POINT('Ctrl Pts',(2.93499992424892,-0.684999940283153,0.));
#132=CARTESIAN_POINT('Ctrl Pts',(2.93499994028315,2.24999998396576,0.));
#133=CARTESIAN_POINT('Ctrl Pts',(2.93499995631739,5.18499990821468,0.));
#134=CARTESIAN_POINT('Ctrl Pts',(3.20684695773507E-8,5.185,0.));
#135=CARTESIAN_POINT('Ctrl Pts',(0.,-0.685,-0.685));
#136=CARTESIAN_POINT('Ctrl Pts',(2.93499992424892,-0.684999940283153,-0.685));
#137=CARTESIAN_POINT('Ctrl Pts',(2.93499994028315,2.24999998396576,-0.685));
#138=CARTESIAN_POINT('Ctrl Pts',(2.93499995631739,5.18499990821468,-0.685));
#139=CARTESIAN_POINT('Ctrl Pts',(3.20684695773507E-8,5.185,-0.685));
#140=CARTESIAN_POINT('Ctrl Pts',(0.,0.,-0.685));
#141=CARTESIAN_POINT('Ctrl Pts',(2.24999994192847,5.9716846690691E-8,-0.685));
#142=CARTESIAN_POINT('Ctrl Pts',(2.24999994028315,2.25000000164532,-0.685));
#143=CARTESIAN_POINT('Ctrl Pts',(2.24999993863783,4.49999994357379,-0.685));
#144=CARTESIAN_POINT('Ctrl Pts',(-3.29063902324579E-9,4.5,-0.685));
#145=CARTESIAN_POINT('Ctrl Pts',(0.,0.685,-0.685));
#146=CARTESIAN_POINT('Ctrl Pts',(1.56499995960803,0.685000059716846,-0.685));
#147=CARTESIAN_POINT('Ctrl Pts',(1.56499994028315,2.25000001932487,-0.685));
#148=CARTESIAN_POINT('Ctrl Pts',(1.56499992095828,3.8149999789329,-0.685));
#149=CARTESIAN_POINT('Ctrl Pts',(-3.86497476238423E-8,3.815,-0.685));
#150=CARTESIAN_POINT('Ctrl Pts',(0.,0.685,-8.38883057415937E-17));
#151=CARTESIAN_POINT('Ctrl Pts',(1.56499995960803,0.685000059716847,-8.38883057415937E-17));
#152=CARTESIAN_POINT('Ctrl Pts',(1.56499994028315,2.25000001932487,-8.38883057415937E-17));
#153=CARTESIAN_POINT('Ctrl Pts',(1.56499992095828,3.8149999789329,-8.38883057415937E-17));
#154=CARTESIAN_POINT('Ctrl Pts',(-3.86497476238423E-8,3.815,-8.38883057415937E-17));
#155=CARTESIAN_POINT('',(0.,0.685,8.38883057415937E-17));
#156=CARTESIAN_POINT('Origin',(0.,0.,0.));
#157=CARTESIAN_POINT('',(-3.63609255519703E-8,3.815,8.38883057415937E-17));
#158=CARTESIAN_POINT('Origin',(-5.97168487887502E-8,2.25,8.38883057415937E-17));
#159=CARTESIAN_POINT('Origin',(-3.29063902324579E-9,4.5,0.));
#160=CARTESIAN_POINT('Ctrl Pts',(0.,0.75,9.18485099360515E-17));
#161=CARTESIAN_POINT('Ctrl Pts',(1.49999996128565,0.750000059716847,9.18485099360515E-17));
#162=CARTESIAN_POINT('Ctrl Pts',(1.49999994028315,2.2500000210025,9.18485099360515E-17));
#163=CARTESIAN_POINT('Ctrl Pts',(1.49999991928066,3.74999998228814,9.18485099360515E-17));
#164=CARTESIAN_POINT('Ctrl Pts',(-4.20049915056507E-8,3.75,9.18485099360515E-17));
#165=CARTESIAN_POINT('Ctrl Pts',(0.,0.75,0.75));
#166=CARTESIAN_POINT('Ctrl Pts',(1.49999996128565,0.750000059716847,0.75));
#167=CARTESIAN_POINT('Ctrl Pts',(1.49999994028315,2.2500000210025,0.75));
#168=CARTESIAN_POINT('Ctrl Pts',(1.49999991928066,3.74999998228814,0.75));
#169=CARTESIAN_POINT('Ctrl Pts',(-4.20049915056507E-8,3.75,0.75));
#170=CARTESIAN_POINT('Ctrl Pts',(0.,0.,0.75));
#171=CARTESIAN_POINT('Ctrl Pts',(2.24999994192847,5.9716846690691E-8,0.75));
#172=CARTESIAN_POINT('Ctrl Pts',(2.24999994028315,2.25000000164532,0.75));
#173=CARTESIAN_POINT('Ctrl Pts',(2.24999993863783,4.49999994357379,0.75));
#174=CARTESIAN_POINT('Ctrl Pts',(-3.29063902324579E-9,4.5,0.75));
#175=CARTESIAN_POINT('Ctrl Pts',(0.,-0.75,0.75));
#176=CARTESIAN_POINT('Ctrl Pts',(2.9999999225713,-0.749999940283153,0.75));
#177=CARTESIAN_POINT('Ctrl Pts',(2.99999994028315,2.24999998228814,0.75));
#178=CARTESIAN_POINT('Ctrl Pts',(2.99999995799501,5.24999990485944,0.75));
#179=CARTESIAN_POINT('Ctrl Pts',(3.54237134591591E-8,5.25,0.75));
#180=CARTESIAN_POINT('Ctrl Pts',(0.,-0.75,0.));
#181=CARTESIAN_POINT('Ctrl Pts',(2.9999999225713,-0.749999940283153,0.));
#182=CARTESIAN_POINT('Ctrl Pts',(2.99999994028315,2.24999998228814,0.));
#183=CARTESIAN_POINT('Ctrl Pts',(2.99999995799501,5.24999990485944,0.));
#184=CARTESIAN_POINT('Ctrl Pts',(3.54237134591591E-8,5.25,0.));
#185=CARTESIAN_POINT('Ctrl Pts',(0.,-0.75,-0.75));
#186=CARTESIAN_POINT('Ctrl Pts',(2.9999999225713,-0.749999940283153,-0.75));
#187=CARTESIAN_POINT('Ctrl Pts',(2.99999994028315,2.24999998228814,-0.75));
#188=CARTESIAN_POINT('Ctrl Pts',(2.99999995799501,5.24999990485944,-0.75));
#189=CARTESIAN_POINT('Ctrl Pts',(3.54237134591591E-8,5.25,-0.75));
#190=CARTESIAN_POINT('Ctrl Pts',(0.,0.,-0.75));
#191=CARTESIAN_POINT('Ctrl Pts',(2.24999994192847,5.9716846690691E-8,-0.75));
#192=CARTESIAN_POINT('Ctrl Pts',(2.24999994028315,2.25000000164532,-0.75));
#193=CARTESIAN_POINT('Ctrl Pts',(2.24999993863783,4.49999994357379,-0.75));
#194=CARTESIAN_POINT('Ctrl Pts',(-3.29063902324579E-9,4.5,-0.75));
#195=CARTESIAN_POINT('Ctrl Pts',(0.,0.75,-0.75));
#196=CARTESIAN_POINT('Ctrl Pts',(1.49999996128565,0.750000059716847,-0.75));
#197=CARTESIAN_POINT('Ctrl Pts',(1.49999994028315,2.2500000210025,-0.75));
#198=CARTESIAN_POINT('Ctrl Pts',(1.49999991928066,3.74999998228814,-0.75));
#199=CARTESIAN_POINT('Ctrl Pts',(-4.20049915056507E-8,3.75,-0.75));
#200=CARTESIAN_POINT('Ctrl Pts',(0.,0.75,-9.18485099360515E-17));
#201=CARTESIAN_POINT('Ctrl Pts',(1.49999996128565,0.750000059716847,-9.18485099360515E-17));
#202=CARTESIAN_POINT('Ctrl Pts',(1.49999994028315,2.2500000210025,-9.18485099360515E-17));
#203=CARTESIAN_POINT('Ctrl Pts',(1.49999991928066,3.74999998228814,-9.18485099360515E-17));
#204=CARTESIAN_POINT('Ctrl Pts',(-4.20049915056507E-8,3.75,-9.18485099360515E-17));
#205=CARTESIAN_POINT('',(0.,0.75,9.18485099360515E-17));
#206=CARTESIAN_POINT('Origin',(0.,0.,0.));
#207=CARTESIAN_POINT('',(-3.98112323313325E-8,3.75,9.18485099360515E-17));
#208=CARTESIAN_POINT('Origin',(-5.97168484390737E-8,2.25,9.18485099360515E-17));
#209=CARTESIAN_POINT('Origin',(-2.61768503465323E-16,4.5,0.));
#210=CARTESIAN_POINT('Origin',(-2.61768499811194E-16,4.5,-1.52964367099311E-17));
#211=CARTESIAN_POINT('Origin',(0.,-6.88397893343955E-17,-1.52964367099311E-17));
#212=UNCERTAINTY_MEASURE_WITH_UNIT(LENGTH_MEASURE(0.000393700787401575),
#217,'DISTANCE_ACCURACY_VALUE',
'Maximum model space distance between geometric entities at asserted c
onnectivities');
#213=UNCERTAINTY_MEASURE_WITH_UNIT(LENGTH_MEASURE(0.000393700787401575),
#217,'DISTANCE_ACCURACY_VALUE',
'Maximum model space distance between geometric entities at asserted c
onnectivities');
#214=(
GEOMETRIC_REPRESENTATION_CONTEXT(3)
GLOBAL_UNCERTAINTY_ASSIGNED_CONTEXT((#212))
GLOBAL_UNIT_ASSIGNED_CONTEXT((#217,#221,#222))
REPRESENTATION_CONTEXT('','3D')
);
#215=(
GEOMETRIC_REPRESENTATION_CONTEXT(3)
GLOBAL_UNCERTAINTY_ASSIGNED_CONTEXT((#213))
GLOBAL_UNIT_ASSIGNED_CONTEXT((#217,#221,#222))
REPRESENTATION_CONTEXT('','3D')
);
#216=DIMENSIONAL_EXPONENTS(1.,0.,0.,0.,0.,0.,0.);
#217=(
CONVERSION_BASED_UNIT('inch',#220)
LENGTH_UNIT()
NAMED_UNIT(#216)
);
#218=(
LENGTH_UNIT()
NAMED_UNIT(*)
SI_UNIT(.MILLI.,.METRE.)
);
#219=(
LENGTH_UNIT()
NAMED_UNIT(*)
SI_UNIT(.CENTI.,.METRE.)
);
#220=LENGTH_MEASURE_WITH_UNIT(LENGTH_MEASURE(25.4),#218);
#221=(
NAMED_UNIT(*)
PLANE_ANGLE_UNIT()
SI_UNIT($,.RADIAN.)
);
#222=(
NAMED_UNIT(*)
SI_UNIT($,.STERADIAN.)
SOLID_ANGLE_UNIT()
);
#223=SHAPE_DEFINITION_REPRESENTATION(#224,#225);
#224=PRODUCT_DEFINITION_SHAPE('',$,#227);
#225=SHAPE_REPRESENTATION('',(#82),#214);
#226=PRODUCT_DEFINITION_CONTEXT('part definition',#231,'design');
#227=PRODUCT_DEFINITION('2WU-15','2WU',#228,#226);
#228=PRODUCT_DEFINITION_FORMATION('',$,#233);
#229=PRODUCT_RELATED_PRODUCT_CATEGORY('2WU','2WU',(#233));
#230=APPLICATION_PROTOCOL_DEFINITION('international standard',
'automotive_design',2009,#231);
#231=APPLICATION_CONTEXT(
'Core Data for Automotive Mechanical Design Process');
#232=PRODUCT_CONTEXT('part definition',#231,'mechanical');
#233=PRODUCT('2WU-15','2WU',$,(#232));
#234=PRESENTATION_STYLE_ASSIGNMENT((#235));
#235=SURFACE_STYLE_USAGE(.BOTH.,#238);
#236=SURFACE_STYLE_RENDERING_WITH_PROPERTIES($,#242,(#237));
#237=SURFACE_STYLE_TRANSPARENT(0.);
#238=SURFACE_SIDE_STYLE('',(#239,#236));
#239=SURFACE_STYLE_FILL_AREA(#240);
#240=FILL_AREA_STYLE('',(#241));
#241=FILL_AREA_STYLE_COLOUR('',#242);
#242=COLOUR_RGB('',0.749019607843137,0.749019607843137,0.749019607843137);
ENDSEC;
END-ISO-10303-21;
