ISO-10303-21;
HEADER;
/* Generated by software containing ST-Developer
 * from STEP Tools, Inc. (www.steptools.com) 
 */

FILE_DESCRIPTION(
/* description */ (''),
/* implementation_level */ '2;1');

FILE_NAME(
/* name */ 
'W:\\AUTOCAD\\AutoCad - Projects\\Numbered\\2WU\\STEP FILES\\2WU-1.stp',

/* time_stamp */ '2022-05-10T10:20:02-04:00',
/* author */ ('marcus'),
/* organization */ (''),
/* preprocessor_version */ 'ST-DEVELOPER v18.1',
/* originating_system */ 'Autodesk Inventor 2020',
/* authorisation */ '');

FILE_SCHEMA (('AUTOMOTIVE_DESIGN { 1 0 10303 214 3 1 1 }'));
ENDSEC;

DATA;
#10=MECHANICAL_DESIGN_GEOMETRIC_PRESENTATION_REPRESENTATION('',(#13),#215);
#11=SHAPE_REPRESENTATION_RELATIONSHIP('SRR','None',#225,#12);
#12=ADVANCED_BREP_SHAPE_REPRESENTATION('',(#14),#214);
#13=STYLED_ITEM('',(#234),#14);
#14=MANIFOLD_SOLID_BREP('Solid1',#63);
#15=FACE_BOUND('',#26,.T.);
#16=FACE_BOUND('',#28,.T.);
#17=PLANE('',#89);
#18=PLANE('',#90);
#19=FACE_OUTER_BOUND('',#23,.T.);
#20=FACE_OUTER_BOUND('',#24,.T.);
#21=FACE_OUTER_BOUND('',#25,.T.);
#22=FACE_OUTER_BOUND('',#27,.T.);
#23=EDGE_LOOP('',(#45,#46,#47,#48));
#24=EDGE_LOOP('',(#49,#50,#51,#52));
#25=EDGE_LOOP('',(#53));
#26=EDGE_LOOP('',(#54));
#27=EDGE_LOOP('',(#55));
#28=EDGE_LOOP('',(#56));
#29=CIRCLE('',#83,0.435);
#30=CIRCLE('',#84,1.065);
#31=CIRCLE('',#85,0.435);
#32=CIRCLE('',#86,0.5);
#33=CIRCLE('',#87,1.);
#34=CIRCLE('',#88,0.5);
#35=VERTEX_POINT('',#155);
#36=VERTEX_POINT('',#157);
#37=VERTEX_POINT('',#205);
#38=VERTEX_POINT('',#207);
#39=EDGE_CURVE('',#35,#35,#29,.T.);
#40=EDGE_CURVE('',#35,#36,#30,.T.);
#41=EDGE_CURVE('',#36,#36,#31,.T.);
#42=EDGE_CURVE('',#37,#37,#32,.T.);
#43=EDGE_CURVE('',#37,#38,#33,.T.);
#44=EDGE_CURVE('',#38,#38,#34,.T.);
#45=ORIENTED_EDGE('',*,*,#39,.F.);
#46=ORIENTED_EDGE('',*,*,#40,.T.);
#47=ORIENTED_EDGE('',*,*,#41,.F.);
#48=ORIENTED_EDGE('',*,*,#40,.F.);
#49=ORIENTED_EDGE('',*,*,#42,.F.);
#50=ORIENTED_EDGE('',*,*,#43,.T.);
#51=ORIENTED_EDGE('',*,*,#44,.F.);
#52=ORIENTED_EDGE('',*,*,#43,.F.);
#53=ORIENTED_EDGE('',*,*,#44,.T.);
#54=ORIENTED_EDGE('',*,*,#41,.T.);
#55=ORIENTED_EDGE('',*,*,#42,.T.);
#56=ORIENTED_EDGE('',*,*,#39,.T.);
#57=(
BOUNDED_SURFACE()
B_SPLINE_SURFACE(2,2,((#110,#111,#112,#113,#114),(#115,#116,#117,#118,#119),
(#120,#121,#122,#123,#124),(#125,#126,#127,#128,#129),(#130,#131,#132,#133,
#134),(#135,#136,#137,#138,#139),(#140,#141,#142,#143,#144),(#145,#146,
#147,#148,#149),(#150,#151,#152,#153,#154)),.UNSPECIFIED.,.T.,.F.,.F.)
B_SPLINE_SURFACE_WITH_KNOTS((3,2,2,2,3),(3,2,3),(-3.14159265358979,-1.5707963267949,
0.,1.5707963267949,3.14159265358979),(0.,1.57079627464083,3.14159254928166),
 .UNSPECIFIED.)
GEOMETRIC_REPRESENTATION_ITEM()
RATIONAL_B_SPLINE_SURFACE(((1.,0.707106799625793,1.,0.707106799625793,1.),
(0.707106781186548,0.500000013038516,0.707106781186548,0.500000013038516,
0.707106781186548),(1.,0.707106799625793,1.,0.707106799625793,1.),(0.707106781186548,
0.500000013038516,0.707106781186548,0.500000013038516,0.707106781186548),
(1.,0.707106799625793,1.,0.707106799625793,1.),(0.707106781186548,0.500000013038516,
0.707106781186548,0.500000013038516,0.707106781186548),(1.,0.707106799625793,
1.,0.707106799625793,1.),(0.707106781186548,0.500000013038516,0.707106781186548,
0.500000013038516,0.707106781186548),(1.,0.707106799625793,1.,0.707106799625793,
1.)))
REPRESENTATION_ITEM('')
SURFACE()
);
#58=(
BOUNDED_SURFACE()
B_SPLINE_SURFACE(2,2,((#160,#161,#162,#163,#164),(#165,#166,#167,#168,#169),
(#170,#171,#172,#173,#174),(#175,#176,#177,#178,#179),(#180,#181,#182,#183,
#184),(#185,#186,#187,#188,#189),(#190,#191,#192,#193,#194),(#195,#196,
#197,#198,#199),(#200,#201,#202,#203,#204)),.UNSPECIFIED.,.T.,.F.,.F.)
B_SPLINE_SURFACE_WITH_KNOTS((3,2,2,2,3),(3,2,3),(-3.14159265358979,-1.5707963267949,
0.,1.5707963267949,3.14159265358979),(0.,1.57079627464083,3.14159254928166),
 .UNSPECIFIED.)
GEOMETRIC_REPRESENTATION_ITEM()
RATIONAL_B_SPLINE_SURFACE(((1.,0.707106799625793,1.,0.707106799625793,1.),
(0.707106781186548,0.500000013038516,0.707106781186548,0.500000013038516,
0.707106781186548),(1.,0.707106799625793,1.,0.707106799625793,1.),(0.707106781186548,
0.500000013038516,0.707106781186548,0.500000013038516,0.707106781186548),
(1.,0.707106799625793,1.,0.707106799625793,1.),(0.707106781186548,0.500000013038516,
0.707106781186548,0.500000013038516,0.707106781186548),(1.,0.707106799625793,
1.,0.707106799625793,1.),(0.707106781186548,0.500000013038516,0.707106781186548,
0.500000013038516,0.707106781186548),(1.,0.707106799625793,1.,0.707106799625793,
1.)))
REPRESENTATION_ITEM('')
SURFACE()
);
#59=ADVANCED_FACE('',(#19),#57,.F.);
#60=ADVANCED_FACE('',(#20),#58,.T.);
#61=ADVANCED_FACE('',(#21,#15),#17,.T.);
#62=ADVANCED_FACE('',(#22,#16),#18,.F.);
#63=CLOSED_SHELL('',(#59,#60,#61,#62));
#64=DERIVED_UNIT_ELEMENT(#66,1.);
#65=DERIVED_UNIT_ELEMENT(#219,3.);
#66=(
MASS_UNIT()
NAMED_UNIT(*)
SI_UNIT($,.GRAM.)
);
#67=DERIVED_UNIT((#64,#65));
#68=MEASURE_REPRESENTATION_ITEM('density measure',
POSITIVE_RATIO_MEASURE(1.),#67);
#69=PROPERTY_DEFINITION_REPRESENTATION(#74,#71);
#70=PROPERTY_DEFINITION_REPRESENTATION(#75,#72);
#71=REPRESENTATION('material name',(#73),#214);
#72=REPRESENTATION('density',(#68),#214);
#73=DESCRIPTIVE_REPRESENTATION_ITEM('Generic','Generic');
#74=PROPERTY_DEFINITION('material property','material name',#227);
#75=PROPERTY_DEFINITION('material property','density of part',#227);
#76=DATE_TIME_ROLE('creation_date');
#77=APPLIED_DATE_AND_TIME_ASSIGNMENT(#78,#76,(#227));
#78=DATE_AND_TIME(#79,#80);
#79=CALENDAR_DATE(2016,12,9);
#80=LOCAL_TIME(12,5,20.,#81);
#81=COORDINATED_UNIVERSAL_TIME_OFFSET(0,0,.BEHIND.);
#82=AXIS2_PLACEMENT_3D('placement',#109,#91,#92);
#83=AXIS2_PLACEMENT_3D('',#156,#93,#94);
#84=AXIS2_PLACEMENT_3D('',#158,#95,#96);
#85=AXIS2_PLACEMENT_3D('',#159,#97,#98);
#86=AXIS2_PLACEMENT_3D('',#206,#99,#100);
#87=AXIS2_PLACEMENT_3D('',#208,#101,#102);
#88=AXIS2_PLACEMENT_3D('',#209,#103,#104);
#89=AXIS2_PLACEMENT_3D('',#210,#105,#106);
#90=AXIS2_PLACEMENT_3D('',#211,#107,#108);
#91=DIRECTION('axis',(0.,0.,1.));
#92=DIRECTION('refdir',(1.,0.,0.));
#93=DIRECTION('center_axis',(1.,0.,0.));
#94=DIRECTION('ref_axis',(0.,-1.,0.));
#95=DIRECTION('center_axis',(0.,0.,1.));
#96=DIRECTION('ref_axis',(7.36936367206875E-8,-0.999999999999997,0.));
#97=DIRECTION('center_axis',(0.999999999999995,-1.04308128479398E-7,0.));
#98=DIRECTION('ref_axis',(1.04308128479398E-7,0.999999999999995,0.));
#99=DIRECTION('center_axis',(-1.,0.,0.));
#100=DIRECTION('ref_axis',(0.,-1.,0.));
#101=DIRECTION('center_axis',(0.,0.,1.));
#102=DIRECTION('ref_axis',(7.84837225830174E-8,-0.999999999999997,0.));
#103=DIRECTION('center_axis',(-0.999999999999995,1.0464496437191E-7,0.));
#104=DIRECTION('ref_axis',(1.0464496437191E-7,0.999999999999995,0.));
#105=DIRECTION('center_axis',(-0.999999999999995,1.0464496437191E-7,0.));
#106=DIRECTION('ref_axis',(0.,0.,-1.));
#107=DIRECTION('center_axis',(1.,0.,0.));
#108=DIRECTION('ref_axis',(0.,0.,-1.));
#109=CARTESIAN_POINT('',(0.,0.,0.));
#110=CARTESIAN_POINT('Ctrl Pts',(0.,0.435,5.32721357629099E-17));
#111=CARTESIAN_POINT('Ctrl Pts',(1.06499994445592,0.435000078483719,5.32721357629099E-17));
#112=CARTESIAN_POINT('Ctrl Pts',(1.06499992151628,1.50000002293965,5.32721357629099E-17));
#113=CARTESIAN_POINT('Ctrl Pts',(1.06499989857664,2.56499996739557,5.32721357629099E-17));
#114=CARTESIAN_POINT('Ctrl Pts',(-4.58792896761718E-8,2.565,5.32721357629099E-17));
#115=CARTESIAN_POINT('Ctrl Pts',(0.,0.435,0.435));
#116=CARTESIAN_POINT('Ctrl Pts',(1.06499994445592,0.435000078483719,0.435));
#117=CARTESIAN_POINT('Ctrl Pts',(1.06499992151628,1.50000002293965,0.435));
#118=CARTESIAN_POINT('Ctrl Pts',(1.06499989857664,2.56499996739557,0.435));
#119=CARTESIAN_POINT('Ctrl Pts',(-4.58792896761718E-8,2.565,0.435));
#120=CARTESIAN_POINT('Ctrl Pts',(0.,0.,0.435));
#121=CARTESIAN_POINT('Ctrl Pts',(1.49999992176891,7.84837192610905E-8,0.435));
#122=CARTESIAN_POINT('Ctrl Pts',(1.49999992151628,1.50000000025263,0.435));
#123=CARTESIAN_POINT('Ctrl Pts',(1.49999992126365,2.99999992202153,0.435));
#124=CARTESIAN_POINT('Ctrl Pts',(-5.05253787633595E-10,3.,0.435));
#125=CARTESIAN_POINT('Ctrl Pts',(0.,-0.435,0.435));
#126=CARTESIAN_POINT('Ctrl Pts',(1.93499989908189,-0.434999921516281,0.435));
#127=CARTESIAN_POINT('Ctrl Pts',(1.93499992151628,1.49999997756561,0.435));
#128=CARTESIAN_POINT('Ctrl Pts',(1.93499994395067,3.4349998766475,0.435));
#129=CARTESIAN_POINT('Ctrl Pts',(4.48687821009046E-8,3.435,0.435));
#130=CARTESIAN_POINT('Ctrl Pts',(0.,-0.435,0.));
#131=CARTESIAN_POINT('Ctrl Pts',(1.93499989908189,-0.434999921516281,0.));
#132=CARTESIAN_POINT('Ctrl Pts',(1.93499992151628,1.49999997756561,0.));
#133=CARTESIAN_POINT('Ctrl Pts',(1.93499994395067,3.4349998766475,0.));
#134=CARTESIAN_POINT('Ctrl Pts',(4.48687821009046E-8,3.435,0.));
#135=CARTESIAN_POINT('Ctrl Pts',(0.,-0.435,-0.435));
#136=CARTESIAN_POINT('Ctrl Pts',(1.93499989908189,-0.434999921516281,-0.435));
#137=CARTESIAN_POINT('Ctrl Pts',(1.93499992151628,1.49999997756561,-0.435));
#138=CARTESIAN_POINT('Ctrl Pts',(1.93499994395067,3.4349998766475,-0.435));
#139=CARTESIAN_POINT('Ctrl Pts',(4.48687821009046E-8,3.435,-0.435));
#140=CARTESIAN_POINT('Ctrl Pts',(0.,0.,-0.435));
#141=CARTESIAN_POINT('Ctrl Pts',(1.49999992176891,7.84837192610905E-8,-0.435));
#142=CARTESIAN_POINT('Ctrl Pts',(1.49999992151628,1.50000000025263,-0.435));
#143=CARTESIAN_POINT('Ctrl Pts',(1.49999992126365,2.99999992202153,-0.435));
#144=CARTESIAN_POINT('Ctrl Pts',(-5.05253787633595E-10,3.,-0.435));
#145=CARTESIAN_POINT('Ctrl Pts',(0.,0.435,-0.435));
#146=CARTESIAN_POINT('Ctrl Pts',(1.06499994445592,0.435000078483719,-0.435));
#147=CARTESIAN_POINT('Ctrl Pts',(1.06499992151628,1.50000002293965,-0.435));
#148=CARTESIAN_POINT('Ctrl Pts',(1.06499989857664,2.56499996739557,-0.435));
#149=CARTESIAN_POINT('Ctrl Pts',(-4.58792896761718E-8,2.565,-0.435));
#150=CARTESIAN_POINT('Ctrl Pts',(0.,0.435,-5.32721357629099E-17));
#151=CARTESIAN_POINT('Ctrl Pts',(1.06499994445592,0.435000078483719,-5.32721357629099E-17));
#152=CARTESIAN_POINT('Ctrl Pts',(1.06499992151628,1.50000002293965,-5.32721357629099E-17));
#153=CARTESIAN_POINT('Ctrl Pts',(1.06499989857664,2.56499996739557,-5.32721357629099E-17));
#154=CARTESIAN_POINT('Ctrl Pts',(-4.58792896761718E-8,2.565,-5.32721357629099E-17));
#155=CARTESIAN_POINT('',(0.,0.435,5.32721357629099E-17));
#156=CARTESIAN_POINT('Origin',(0.,0.,0.));
#157=CARTESIAN_POINT('',(-4.5520559450647E-8,2.565,5.32721357629099E-17));
#158=CARTESIAN_POINT('Origin',(-7.84837231075324E-8,1.5,5.32721357629099E-17));
#159=CARTESIAN_POINT('Origin',(-5.05253787633595E-10,3.,0.));
#160=CARTESIAN_POINT('Ctrl Pts',(0.,0.5,6.12323399573677E-17));
#161=CARTESIAN_POINT('Ctrl Pts',(0.999999947845937,0.500000078483719,6.12323399573677E-17));
#162=CARTESIAN_POINT('Ctrl Pts',(0.999999921516279,1.50000002632966,6.12323399573677E-17));
#163=CARTESIAN_POINT('Ctrl Pts',(0.999999895186622,2.4999999741756,6.12323399573677E-17));
#164=CARTESIAN_POINT('Ctrl Pts',(-5.26593180273326E-8,2.5,6.12323399573677E-17));
#165=CARTESIAN_POINT('Ctrl Pts',(0.,0.5,0.5));
#166=CARTESIAN_POINT('Ctrl Pts',(0.999999947845938,0.500000078483719,0.5));
#167=CARTESIAN_POINT('Ctrl Pts',(0.99999992151628,1.50000002632966,0.5));
#168=CARTESIAN_POINT('Ctrl Pts',(0.999999895186622,2.4999999741756,0.5));
#169=CARTESIAN_POINT('Ctrl Pts',(-5.26593180273326E-8,2.5,0.5));
#170=CARTESIAN_POINT('Ctrl Pts',(0.,0.,0.5));
#171=CARTESIAN_POINT('Ctrl Pts',(1.49999992176891,7.84837192610905E-8,0.5));
#172=CARTESIAN_POINT('Ctrl Pts',(1.49999992151628,1.50000000025263,0.5));
#173=CARTESIAN_POINT('Ctrl Pts',(1.49999992126365,2.99999992202153,0.5));
#174=CARTESIAN_POINT('Ctrl Pts',(-5.05253787633595E-10,3.,0.5));
#175=CARTESIAN_POINT('Ctrl Pts',(0.,-0.5,0.5));
#176=CARTESIAN_POINT('Ctrl Pts',(1.99999989569187,-0.49999992151628,0.5));
#177=CARTESIAN_POINT('Ctrl Pts',(1.99999992151628,1.49999997417559,0.5));
#178=CARTESIAN_POINT('Ctrl Pts',(1.99999994734068,3.49999986986747,0.5));
#179=CARTESIAN_POINT('Ctrl Pts',(5.16488104520654E-8,3.5,0.5));
#180=CARTESIAN_POINT('Ctrl Pts',(0.,-0.5,0.));
#181=CARTESIAN_POINT('Ctrl Pts',(1.99999989569187,-0.49999992151628,0.));
#182=CARTESIAN_POINT('Ctrl Pts',(1.99999992151628,1.49999997417559,0.));
#183=CARTESIAN_POINT('Ctrl Pts',(1.99999994734068,3.49999986986747,0.));
#184=CARTESIAN_POINT('Ctrl Pts',(5.16488104520654E-8,3.5,0.));
#185=CARTESIAN_POINT('Ctrl Pts',(0.,-0.5,-0.5));
#186=CARTESIAN_POINT('Ctrl Pts',(1.99999989569187,-0.49999992151628,-0.5));
#187=CARTESIAN_POINT('Ctrl Pts',(1.99999992151628,1.49999997417559,-0.5));
#188=CARTESIAN_POINT('Ctrl Pts',(1.99999994734068,3.49999986986747,-0.5));
#189=CARTESIAN_POINT('Ctrl Pts',(5.16488104520654E-8,3.5,-0.5));
#190=CARTESIAN_POINT('Ctrl Pts',(0.,0.,-0.5));
#191=CARTESIAN_POINT('Ctrl Pts',(1.49999992176891,7.84837192610905E-8,-0.5));
#192=CARTESIAN_POINT('Ctrl Pts',(1.49999992151628,1.50000000025263,-0.5));
#193=CARTESIAN_POINT('Ctrl Pts',(1.49999992126365,2.99999992202153,-0.5));
#194=CARTESIAN_POINT('Ctrl Pts',(-5.05253787633595E-10,3.,-0.5));
#195=CARTESIAN_POINT('Ctrl Pts',(0.,0.5,-0.5));
#196=CARTESIAN_POINT('Ctrl Pts',(0.999999947845938,0.500000078483719,-0.5));
#197=CARTESIAN_POINT('Ctrl Pts',(0.99999992151628,1.50000002632966,-0.5));
#198=CARTESIAN_POINT('Ctrl Pts',(0.999999895186622,2.4999999741756,-0.5));
#199=CARTESIAN_POINT('Ctrl Pts',(-5.26593180273326E-8,2.5,-0.5));
#200=CARTESIAN_POINT('Ctrl Pts',(0.,0.5,-6.12323399573677E-17));
#201=CARTESIAN_POINT('Ctrl Pts',(0.999999947845937,0.500000078483719,-6.12323399573677E-17));
#202=CARTESIAN_POINT('Ctrl Pts',(0.999999921516279,1.50000002632966,-6.12323399573677E-17));
#203=CARTESIAN_POINT('Ctrl Pts',(0.999999895186622,2.4999999741756,-6.12323399573677E-17));
#204=CARTESIAN_POINT('Ctrl Pts',(-5.26593180273326E-8,2.5,-6.12323399573677E-17));
#205=CARTESIAN_POINT('',(0.,0.5,6.12323399573677E-17));
#206=CARTESIAN_POINT('Origin',(0.,0.,0.));
#207=CARTESIAN_POINT('',(-5.23224821348211E-8,2.5,6.12323399573677E-17));
#208=CARTESIAN_POINT('Origin',(-7.84837225830176E-8,1.5,6.12323399573677E-17));
#209=CARTESIAN_POINT('Origin',(5.11337294807963E-17,3.,0.));
#210=CARTESIAN_POINT('Origin',(5.11337348168529E-17,3.,1.14723275324483E-17));
#211=CARTESIAN_POINT('Origin',(0.,-5.09920051262407E-17,1.14723275324483E-17));
#212=UNCERTAINTY_MEASURE_WITH_UNIT(LENGTH_MEASURE(0.000393700787401575),
#217,'DISTANCE_ACCURACY_VALUE',
'Maximum model space distance between geometric entities at asserted c
onnectivities');
#213=UNCERTAINTY_MEASURE_WITH_UNIT(LENGTH_MEASURE(0.000393700787401575),
#217,'DISTANCE_ACCURACY_VALUE',
'Maximum model space distance between geometric entities at asserted c
onnectivities');
#214=(
GEOMETRIC_REPRESENTATION_CONTEXT(3)
GLOBAL_UNCERTAINTY_ASSIGNED_CONTEXT((#212))
GLOBAL_UNIT_ASSIGNED_CONTEXT((#217,#221,#222))
REPRESENTATION_CONTEXT('','3D')
);
#215=(
GEOMETRIC_REPRESENTATION_CONTEXT(3)
GLOBAL_UNCERTAINTY_ASSIGNED_CONTEXT((#213))
GLOBAL_UNIT_ASSIGNED_CONTEXT((#217,#221,#222))
REPRESENTATION_CONTEXT('','3D')
);
#216=DIMENSIONAL_EXPONENTS(1.,0.,0.,0.,0.,0.,0.);
#217=(
CONVERSION_BASED_UNIT('inch',#220)
LENGTH_UNIT()
NAMED_UNIT(#216)
);
#218=(
LENGTH_UNIT()
NAMED_UNIT(*)
SI_UNIT(.MILLI.,.METRE.)
);
#219=(
LENGTH_UNIT()
NAMED_UNIT(*)
SI_UNIT(.CENTI.,.METRE.)
);
#220=LENGTH_MEASURE_WITH_UNIT(LENGTH_MEASURE(25.4),#218);
#221=(
NAMED_UNIT(*)
PLANE_ANGLE_UNIT()
SI_UNIT($,.RADIAN.)
);
#222=(
NAMED_UNIT(*)
SI_UNIT($,.STERADIAN.)
SOLID_ANGLE_UNIT()
);
#223=SHAPE_DEFINITION_REPRESENTATION(#224,#225);
#224=PRODUCT_DEFINITION_SHAPE('',$,#227);
#225=SHAPE_REPRESENTATION('',(#82),#214);
#226=PRODUCT_DEFINITION_CONTEXT('part definition',#231,'design');
#227=PRODUCT_DEFINITION('2WU-1','2WU',#228,#226);
#228=PRODUCT_DEFINITION_FORMATION('',$,#233);
#229=PRODUCT_RELATED_PRODUCT_CATEGORY('2WU','2WU',(#233));
#230=APPLICATION_PROTOCOL_DEFINITION('international standard',
'automotive_design',2009,#231);
#231=APPLICATION_CONTEXT(
'Core Data for Automotive Mechanical Design Process');
#232=PRODUCT_CONTEXT('part definition',#231,'mechanical');
#233=PRODUCT('2WU-1','2WU',$,(#232));
#234=PRESENTATION_STYLE_ASSIGNMENT((#235));
#235=SURFACE_STYLE_USAGE(.BOTH.,#238);
#236=SURFACE_STYLE_RENDERING_WITH_PROPERTIES($,#242,(#237));
#237=SURFACE_STYLE_TRANSPARENT(0.);
#238=SURFACE_SIDE_STYLE('',(#239,#236));
#239=SURFACE_STYLE_FILL_AREA(#240);
#240=FILL_AREA_STYLE('',(#241));
#241=FILL_AREA_STYLE_COLOUR('',#242);
#242=COLOUR_RGB('',0.749019607843137,0.749019607843137,0.749019607843137);
ENDSEC;
END-ISO-10303-21;
