ISO-10303-21;
HEADER;
/* Generated by software containing ST-Developer
 * from STEP Tools, Inc. (www.steptools.com) 
 */

FILE_DESCRIPTION(
/* description */ (''),
/* implementation_level */ '2;1');

FILE_NAME(
/* name */ 
'W:\\AUTOCAD\\AutoCad - Projects\\Numbered\\32W\\STEP FILES\\32W-10X6X
7.stp',
/* time_stamp */ '2022-03-02T16:08:19-05:00',
/* author */ ('ken'),
/* organization */ (''),
/* preprocessor_version */ 'ST-DEVELOPER v18.1',
/* originating_system */ 'Autodesk Inventor 2020',
/* authorisation */ '');

FILE_SCHEMA (('AUTOMOTIVE_DESIGN { 1 0 10303 214 3 1 1 }'));
ENDSEC;

DATA;
#10=MECHANICAL_DESIGN_GEOMETRIC_PRESENTATION_REPRESENTATION('',(#13),#197);
#11=SHAPE_REPRESENTATION_RELATIONSHIP('SRR','None',#207,#12);
#12=ADVANCED_BREP_SHAPE_REPRESENTATION('',(#14),#196);
#13=STYLED_ITEM('',(#216),#14);
#14=MANIFOLD_SOLID_BREP('Solid1',#83);
#15=FACE_BOUND('',#25,.T.);
#16=FACE_BOUND('',#27,.T.);
#17=PLANE('',#107);
#18=PLANE('',#110);
#19=FACE_OUTER_BOUND('',#23,.T.);
#20=FACE_OUTER_BOUND('',#24,.T.);
#21=FACE_OUTER_BOUND('',#26,.T.);
#22=FACE_OUTER_BOUND('',#28,.T.);
#23=EDGE_LOOP('',(#57,#58,#59,#60,#61,#62));
#24=EDGE_LOOP('',(#63,#64));
#25=EDGE_LOOP('',(#65,#66));
#26=EDGE_LOOP('',(#67,#68));
#27=EDGE_LOOP('',(#69,#70));
#28=EDGE_LOOP('',(#71,#72,#73,#74,#75,#76));
#29=B_SPLINE_CURVE_WITH_KNOTS('',1,(#159,#160),.UNSPECIFIED.,.F.,.F.,(2,
2),(0.0187287912389459,1.55086358814579),.UNSPECIFIED.);
#30=B_SPLINE_CURVE_WITH_KNOTS('',1,(#192,#193),.UNSPECIFIED.,.F.,.F.,(2,
2),(-1.51746304957322,-0.0187287912389457),.UNSPECIFIED.);
#31=CIRCLE('',#103,4.89100000000001);
#32=CIRCLE('',#104,4.89100000000001);
#33=CIRCLE('',#105,2.89100000000001);
#34=CIRCLE('',#106,2.89100000000001);
#35=CIRCLE('',#108,3.);
#36=CIRCLE('',#109,3.);
#37=CIRCLE('',#111,5.);
#38=CIRCLE('',#112,5.);
#39=VERTEX_POINT('',#154);
#40=VERTEX_POINT('',#155);
#41=VERTEX_POINT('',#158);
#42=VERTEX_POINT('',#161);
#43=VERTEX_POINT('',#165);
#44=VERTEX_POINT('',#166);
#45=VERTEX_POINT('',#170);
#46=VERTEX_POINT('',#171);
#47=EDGE_CURVE('',#39,#40,#31,.T.);
#48=EDGE_CURVE('',#40,#39,#32,.T.);
#49=EDGE_CURVE('',#40,#41,#29,.T.);
#50=EDGE_CURVE('',#42,#41,#33,.T.);
#51=EDGE_CURVE('',#41,#42,#34,.T.);
#52=EDGE_CURVE('',#43,#44,#35,.T.);
#53=EDGE_CURVE('',#44,#43,#36,.T.);
#54=EDGE_CURVE('',#45,#46,#37,.T.);
#55=EDGE_CURVE('',#46,#45,#38,.T.);
#56=EDGE_CURVE('',#44,#46,#30,.T.);
#57=ORIENTED_EDGE('',*,*,#47,.F.);
#58=ORIENTED_EDGE('',*,*,#48,.F.);
#59=ORIENTED_EDGE('',*,*,#49,.T.);
#60=ORIENTED_EDGE('',*,*,#50,.F.);
#61=ORIENTED_EDGE('',*,*,#51,.F.);
#62=ORIENTED_EDGE('',*,*,#49,.F.);
#63=ORIENTED_EDGE('',*,*,#52,.F.);
#64=ORIENTED_EDGE('',*,*,#53,.F.);
#65=ORIENTED_EDGE('',*,*,#50,.T.);
#66=ORIENTED_EDGE('',*,*,#51,.T.);
#67=ORIENTED_EDGE('',*,*,#54,.F.);
#68=ORIENTED_EDGE('',*,*,#55,.F.);
#69=ORIENTED_EDGE('',*,*,#47,.T.);
#70=ORIENTED_EDGE('',*,*,#48,.T.);
#71=ORIENTED_EDGE('',*,*,#52,.T.);
#72=ORIENTED_EDGE('',*,*,#56,.T.);
#73=ORIENTED_EDGE('',*,*,#55,.T.);
#74=ORIENTED_EDGE('',*,*,#54,.T.);
#75=ORIENTED_EDGE('',*,*,#56,.F.);
#76=ORIENTED_EDGE('',*,*,#53,.T.);
#77=(
BOUNDED_SURFACE()
B_SPLINE_SURFACE(1,2,((#136,#137,#138,#139,#140,#141,#142,#143,#144),(#145,
#146,#147,#148,#149,#150,#151,#152,#153)),.UNSPECIFIED.,.F.,.T.,.F.)
B_SPLINE_SURFACE_WITH_KNOTS((2,2),(3,2,2,2,3),(-0.269970193097558,1.69956842504755),
(-3.14159265358979,-1.5707963267949,0.,1.5707963267949,3.14159265358979),
 .UNSPECIFIED.)
GEOMETRIC_REPRESENTATION_ITEM()
RATIONAL_B_SPLINE_SURFACE(((1.,0.707106781186548,1.,0.707106781186548,1.,
0.707106781186548,1.,0.707106781186548,1.),(1.,0.707106781186548,1.,0.707106781186548,
1.,0.707106781186548,1.,0.707106781186548,1.)))
REPRESENTATION_ITEM('')
SURFACE()
);
#78=(
BOUNDED_SURFACE()
B_SPLINE_SURFACE(1,2,((#174,#175,#176,#177,#178,#179,#180,#181,#182),(#183,
#184,#185,#186,#187,#188,#189,#190,#191)),.UNSPECIFIED.,.F.,.T.,.F.)
B_SPLINE_SURFACE_WITH_KNOTS((2,2),(3,2,2,2,3),(-0.269056964845214,1.66861722594594),
(-3.14159265358979,-1.5707963267949,0.,1.5707963267949,3.14159265358979),
 .UNSPECIFIED.)
GEOMETRIC_REPRESENTATION_ITEM()
RATIONAL_B_SPLINE_SURFACE(((1.,0.707106781186548,1.,0.707106781186548,1.,
0.707106781186548,1.,0.707106781186548,1.),(1.,0.707106781186548,1.,0.707106781186548,
1.,0.707106781186548,1.,0.707106781186548,1.)))
REPRESENTATION_ITEM('')
SURFACE()
);
#79=ADVANCED_FACE('',(#19),#77,.T.);
#80=ADVANCED_FACE('',(#20,#15),#17,.F.);
#81=ADVANCED_FACE('',(#21,#16),#18,.F.);
#82=ADVANCED_FACE('',(#22),#78,.F.);
#83=CLOSED_SHELL('',(#79,#80,#81,#82));
#84=DERIVED_UNIT_ELEMENT(#86,1.);
#85=DERIVED_UNIT_ELEMENT(#201,3.);
#86=(
MASS_UNIT()
NAMED_UNIT(*)
SI_UNIT($,.GRAM.)
);
#87=DERIVED_UNIT((#84,#85));
#88=MEASURE_REPRESENTATION_ITEM('density measure',
POSITIVE_RATIO_MEASURE(1.),#87);
#89=PROPERTY_DEFINITION_REPRESENTATION(#94,#91);
#90=PROPERTY_DEFINITION_REPRESENTATION(#95,#92);
#91=REPRESENTATION('material name',(#93),#196);
#92=REPRESENTATION('density',(#88),#196);
#93=DESCRIPTIVE_REPRESENTATION_ITEM('Generic','Generic');
#94=PROPERTY_DEFINITION('material property','material name',#209);
#95=PROPERTY_DEFINITION('material property','density of part',#209);
#96=DATE_TIME_ROLE('creation_date');
#97=APPLIED_DATE_AND_TIME_ASSIGNMENT(#98,#96,(#209));
#98=DATE_AND_TIME(#99,#100);
#99=CALENDAR_DATE(2013,16,9);
#100=LOCAL_TIME(12,33,52.,#101);
#101=COORDINATED_UNIVERSAL_TIME_OFFSET(0,0,.BEHIND.);
#102=AXIS2_PLACEMENT_3D('placement',#135,#113,#114);
#103=AXIS2_PLACEMENT_3D('',#156,#115,#116);
#104=AXIS2_PLACEMENT_3D('',#157,#117,#118);
#105=AXIS2_PLACEMENT_3D('',#162,#119,#120);
#106=AXIS2_PLACEMENT_3D('',#163,#121,#122);
#107=AXIS2_PLACEMENT_3D('',#164,#123,#124);
#108=AXIS2_PLACEMENT_3D('',#167,#125,#126);
#109=AXIS2_PLACEMENT_3D('',#168,#127,#128);
#110=AXIS2_PLACEMENT_3D('',#169,#129,#130);
#111=AXIS2_PLACEMENT_3D('',#172,#131,#132);
#112=AXIS2_PLACEMENT_3D('',#173,#133,#134);
#113=DIRECTION('axis',(0.,0.,1.));
#114=DIRECTION('refdir',(1.,0.,0.));
#115=DIRECTION('center_axis',(0.,0.,-1.));
#116=DIRECTION('ref_axis',(-0.997510049622329,-0.0705244702387675,0.));
#117=DIRECTION('center_axis',(0.,0.,-1.));
#118=DIRECTION('ref_axis',(-0.997510049622329,-0.0705244702387675,0.));
#119=DIRECTION('center_axis',(0.,0.,1.));
#120=DIRECTION('ref_axis',(-0.997510049622329,-0.0705244702387674,0.));
#121=DIRECTION('center_axis',(0.,0.,1.));
#122=DIRECTION('ref_axis',(-0.997510049622329,-0.0705244702387674,0.));
#123=DIRECTION('center_axis',(0.,0.,1.));
#124=DIRECTION('ref_axis',(1.,0.,0.));
#125=DIRECTION('center_axis',(0.,0.,1.));
#126=DIRECTION('ref_axis',(-1.,0.,0.));
#127=DIRECTION('center_axis',(0.,0.,1.));
#128=DIRECTION('ref_axis',(-1.,0.,0.));
#129=DIRECTION('center_axis',(0.,0.,-1.));
#130=DIRECTION('ref_axis',(-1.,0.,0.));
#131=DIRECTION('center_axis',(0.,0.,-1.));
#132=DIRECTION('ref_axis',(-1.,0.,0.));
#133=DIRECTION('center_axis',(0.,0.,-1.));
#134=DIRECTION('ref_axis',(-1.,0.,0.));
#135=CARTESIAN_POINT('',(0.,0.,0.));
#136=CARTESIAN_POINT('Ctrl Pts',(5.254741759436,0.00534553803185856,1.31900462964187));
#137=CARTESIAN_POINT('Ctrl Pts',(5.254741759436,-4.89099999999999,2.61929987617221));
#138=CARTESIAN_POINT('Ctrl Pts',(-4.41522888012143E-15,-4.89099999999999,
2.61929987617221));
#139=CARTESIAN_POINT('Ctrl Pts',(-5.25474175943601,-4.89099999999998,2.61929987617221));
#140=CARTESIAN_POINT('Ctrl Pts',(-5.254741759436,0.00534553803186739,1.31900462964187));
#141=CARTESIAN_POINT('Ctrl Pts',(-5.254741759436,4.90169107606372,0.0187093831115238));
#142=CARTESIAN_POINT('Ctrl Pts',(4.41522888012143E-15,4.90169107606371,
0.0187093831115247));
#143=CARTESIAN_POINT('Ctrl Pts',(5.25474175943601,4.90169107606371,0.0187093831115262));
#144=CARTESIAN_POINT('Ctrl Pts',(5.254741759436,0.00534553803185856,1.31900462964187));
#145=CARTESIAN_POINT('Ctrl Pts',(2.69017032788138,-2.38431097806766,-7.67940096420615));
#146=CARTESIAN_POINT('Ctrl Pts',(2.69017032788138,-4.891,-7.01371350517552));
#147=CARTESIAN_POINT('Ctrl Pts',(-2.97788499905755E-15,-4.891,-7.01371350517552));
#148=CARTESIAN_POINT('Ctrl Pts',(-2.69017032788138,-4.891,-7.01371350517552));
#149=CARTESIAN_POINT('Ctrl Pts',(-2.69017032788138,-2.38431097806765,-7.67940096420616));
#150=CARTESIAN_POINT('Ctrl Pts',(-2.69017032788138,0.122378043864691,-8.34508842323679));
#151=CARTESIAN_POINT('Ctrl Pts',(2.97788499905755E-15,0.122378043864689,
-8.34508842323679));
#152=CARTESIAN_POINT('Ctrl Pts',(2.69017032788138,0.122378043864685,-8.34508842323679));
#153=CARTESIAN_POINT('Ctrl Pts',(2.69017032788138,-2.38431097806766,-7.67940096420615));
#154=CARTESIAN_POINT('',(-4.891,0.,0.));
#155=CARTESIAN_POINT('',(4.87882165270282,-0.344935183937825,0.));
#156=CARTESIAN_POINT('Origin',(0.,-2.79741234551221E-15,0.));
#157=CARTESIAN_POINT('Origin',(0.,-2.79741234551221E-15,0.));
#158=CARTESIAN_POINT('',(2.88380155345816,-2.20388624346029,-7.));
#159=CARTESIAN_POINT('Ctrl Pts',(4.87882165270282,-0.344935183937825,0.));
#160=CARTESIAN_POINT('Ctrl Pts',(2.88380155345816,-2.20388624346029,-7.));
#161=CARTESIAN_POINT('',(2.891,-2.,-7.));
#162=CARTESIAN_POINT('Origin',(6.99353086378051E-16,-2.,-7.));
#163=CARTESIAN_POINT('Origin',(6.99353086378051E-16,-2.,-7.));
#164=CARTESIAN_POINT('Origin',(0.,-2.,-7.));
#165=CARTESIAN_POINT('',(-3.,-2.,-7.));
#166=CARTESIAN_POINT('',(2.99253014886699,-2.21157341071631,-7.));
#167=CARTESIAN_POINT('Origin',(0.,-2.,-7.));
#168=CARTESIAN_POINT('Origin',(0.,-2.,-7.));
#169=CARTESIAN_POINT('Origin',(0.,0.,0.));
#170=CARTESIAN_POINT('',(-5.,0.,0.));
#171=CARTESIAN_POINT('',(4.98755024811164,-0.352622351193852,0.));
#172=CARTESIAN_POINT('Origin',(0.,0.,0.));
#173=CARTESIAN_POINT('Origin',(0.,0.,0.));
#174=CARTESIAN_POINT('Ctrl Pts',(5.37063241526135,0.00433194755068234,1.34413441301333));
#175=CARTESIAN_POINT('Ctrl Pts',(5.37063241526135,-5.00000000000001,2.67310700959926));
#176=CARTESIAN_POINT('Ctrl Pts',(-5.15011839308232E-15,-5.00000000000001,
2.67310700959926));
#177=CARTESIAN_POINT('Ctrl Pts',(-5.37063241526136,-5.,2.67310700959925));
#178=CARTESIAN_POINT('Ctrl Pts',(-5.37063241526135,0.00433194755069266,
1.34413441301333));
#179=CARTESIAN_POINT('Ctrl Pts',(-5.37063241526135,5.00866389510139,0.0151618164274047));
#180=CARTESIAN_POINT('Ctrl Pts',(5.15011839308232E-15,5.00866389510138,
0.0151618164274057));
#181=CARTESIAN_POINT('Ctrl Pts',(5.37063241526136,5.00866389510138,0.0151618164274075));
#182=CARTESIAN_POINT('Ctrl Pts',(5.37063241526135,0.00433194755068234,1.34413441301333));
#183=CARTESIAN_POINT('Ctrl Pts',(2.7913232849607,-2.39905709220071,-7.70598188352949));
#184=CARTESIAN_POINT('Ctrl Pts',(2.7913232849607,-5.,-7.0152639443565));
#185=CARTESIAN_POINT('Ctrl Pts',(-2.60295826333278E-15,-5.,-7.0152639443565));
#186=CARTESIAN_POINT('Ctrl Pts',(-2.7913232849607,-5.,-7.0152639443565));
#187=CARTESIAN_POINT('Ctrl Pts',(-2.7913232849607,-2.39905709220071,-7.70598188352949));
#188=CARTESIAN_POINT('Ctrl Pts',(-2.7913232849607,0.201885815598583,-8.39669982270248));
#189=CARTESIAN_POINT('Ctrl Pts',(2.60295826333278E-15,0.201885815598581,
-8.39669982270248));
#190=CARTESIAN_POINT('Ctrl Pts',(2.7913232849607,0.201885815598578,-8.39669982270248));
#191=CARTESIAN_POINT('Ctrl Pts',(2.7913232849607,-2.39905709220071,-7.70598188352949));
#192=CARTESIAN_POINT('Ctrl Pts',(2.99253014886698,-2.21157341071631,-7.));
#193=CARTESIAN_POINT('Ctrl Pts',(4.98755024811164,-0.352622351193851,1.33226762955019E-15));
#194=UNCERTAINTY_MEASURE_WITH_UNIT(LENGTH_MEASURE(0.000393700787401575),
#199,'DISTANCE_ACCURACY_VALUE',
'Maximum model space distance between geometric entities at asserted c
onnectivities');
#195=UNCERTAINTY_MEASURE_WITH_UNIT(LENGTH_MEASURE(0.000393700787401575),
#199,'DISTANCE_ACCURACY_VALUE',
'Maximum model space distance between geometric entities at asserted c
onnectivities');
#196=(
GEOMETRIC_REPRESENTATION_CONTEXT(3)
GLOBAL_UNCERTAINTY_ASSIGNED_CONTEXT((#194))
GLOBAL_UNIT_ASSIGNED_CONTEXT((#199,#203,#204))
REPRESENTATION_CONTEXT('','3D')
);
#197=(
GEOMETRIC_REPRESENTATION_CONTEXT(3)
GLOBAL_UNCERTAINTY_ASSIGNED_CONTEXT((#195))
GLOBAL_UNIT_ASSIGNED_CONTEXT((#199,#203,#204))
REPRESENTATION_CONTEXT('','3D')
);
#198=DIMENSIONAL_EXPONENTS(1.,0.,0.,0.,0.,0.,0.);
#199=(
CONVERSION_BASED_UNIT('inch',#202)
LENGTH_UNIT()
NAMED_UNIT(#198)
);
#200=(
LENGTH_UNIT()
NAMED_UNIT(*)
SI_UNIT(.MILLI.,.METRE.)
);
#201=(
LENGTH_UNIT()
NAMED_UNIT(*)
SI_UNIT(.CENTI.,.METRE.)
);
#202=LENGTH_MEASURE_WITH_UNIT(LENGTH_MEASURE(25.4),#200);
#203=(
NAMED_UNIT(*)
PLANE_ANGLE_UNIT()
SI_UNIT($,.RADIAN.)
);
#204=(
NAMED_UNIT(*)
SI_UNIT($,.STERADIAN.)
SOLID_ANGLE_UNIT()
);
#205=SHAPE_DEFINITION_REPRESENTATION(#206,#207);
#206=PRODUCT_DEFINITION_SHAPE('',$,#209);
#207=SHAPE_REPRESENTATION('',(#102),#196);
#208=PRODUCT_DEFINITION_CONTEXT('part definition',#213,'design');
#209=PRODUCT_DEFINITION('32W-10X6X7','32W-10X6X7',#210,#208);
#210=PRODUCT_DEFINITION_FORMATION('',$,#215);
#211=PRODUCT_RELATED_PRODUCT_CATEGORY('32W-10X6X7','32W-10X6X7',(#215));
#212=APPLICATION_PROTOCOL_DEFINITION('international standard',
'automotive_design',2009,#213);
#213=APPLICATION_CONTEXT(
'Core Data for Automotive Mechanical Design Process');
#214=PRODUCT_CONTEXT('part definition',#213,'mechanical');
#215=PRODUCT('32W-10X6X7','32W-10X6X7',$,(#214));
#216=PRESENTATION_STYLE_ASSIGNMENT((#217));
#217=SURFACE_STYLE_USAGE(.BOTH.,#220);
#218=SURFACE_STYLE_RENDERING_WITH_PROPERTIES($,#224,(#219));
#219=SURFACE_STYLE_TRANSPARENT(0.);
#220=SURFACE_SIDE_STYLE('',(#221,#218));
#221=SURFACE_STYLE_FILL_AREA(#222);
#222=FILL_AREA_STYLE('',(#223));
#223=FILL_AREA_STYLE_COLOUR('',#224);
#224=COLOUR_RGB('',0.749019607843137,0.749019607843137,0.749019607843137);
ENDSEC;
END-ISO-10303-21;
