ISO-10303-21;
HEADER;
/* Generated by software containing ST-Developer
 * from STEP Tools, Inc. (www.steptools.com) 
 */

FILE_DESCRIPTION(
/* description */ (''),
/* implementation_level */ '2;1');

FILE_NAME(
/* name */ 
'W:\\AUTOCAD\\AutoCad - Projects\\Numbered\\32W\\STEP FILES\\32W-6X2.5
X5.5.stp',
/* time_stamp */ '2022-03-02T16:09:22-05:00',
/* author */ ('ken'),
/* organization */ (''),
/* preprocessor_version */ 'ST-DEVELOPER v18.1',
/* originating_system */ 'Autodesk Inventor 2020',
/* authorisation */ '');

FILE_SCHEMA (('AUTOMOTIVE_DESIGN { 1 0 10303 214 3 1 1 }'));
ENDSEC;

DATA;
#10=MECHANICAL_DESIGN_GEOMETRIC_PRESENTATION_REPRESENTATION('',(#13),#197);
#11=SHAPE_REPRESENTATION_RELATIONSHIP('SRR','None',#207,#12);
#12=ADVANCED_BREP_SHAPE_REPRESENTATION('',(#14),#196);
#13=STYLED_ITEM('',(#216),#14);
#14=MANIFOLD_SOLID_BREP('Solid1',#83);
#15=FACE_BOUND('',#25,.T.);
#16=FACE_BOUND('',#27,.T.);
#17=PLANE('',#107);
#18=PLANE('',#110);
#19=FACE_OUTER_BOUND('',#23,.T.);
#20=FACE_OUTER_BOUND('',#24,.T.);
#21=FACE_OUTER_BOUND('',#26,.T.);
#22=FACE_OUTER_BOUND('',#28,.T.);
#23=EDGE_LOOP('',(#57,#58,#59,#60,#61,#62));
#24=EDGE_LOOP('',(#63,#64));
#25=EDGE_LOOP('',(#65,#66));
#26=EDGE_LOOP('',(#67,#68));
#27=EDGE_LOOP('',(#69,#70));
#28=EDGE_LOOP('',(#71,#72,#73,#74,#75,#76));
#29=B_SPLINE_CURVE_WITH_KNOTS('',1,(#159,#160),.UNSPECIFIED.,.F.,.F.,(2,
2),(0.0246931893470069,2.08847323820347),.UNSPECIFIED.);
#30=B_SPLINE_CURVE_WITH_KNOTS('',1,(#192,#193),.UNSPECIFIED.,.F.,.F.,(2,
2),(-2.0134892297617,-0.0246931893470079),.UNSPECIFIED.);
#31=CIRCLE('',#103,2.89100000000001);
#32=CIRCLE('',#104,2.89100000000001);
#33=CIRCLE('',#105,1.14100000000001);
#34=CIRCLE('',#106,1.14100000000001);
#35=CIRCLE('',#108,3.);
#36=CIRCLE('',#109,3.);
#37=CIRCLE('',#111,1.25);
#38=CIRCLE('',#112,1.25);
#39=VERTEX_POINT('',#154);
#40=VERTEX_POINT('',#155);
#41=VERTEX_POINT('',#158);
#42=VERTEX_POINT('',#161);
#43=VERTEX_POINT('',#165);
#44=VERTEX_POINT('',#166);
#45=VERTEX_POINT('',#170);
#46=VERTEX_POINT('',#171);
#47=EDGE_CURVE('',#39,#40,#31,.T.);
#48=EDGE_CURVE('',#40,#39,#32,.T.);
#49=EDGE_CURVE('',#40,#41,#29,.T.);
#50=EDGE_CURVE('',#42,#41,#33,.T.);
#51=EDGE_CURVE('',#41,#42,#34,.T.);
#52=EDGE_CURVE('',#43,#44,#35,.T.);
#53=EDGE_CURVE('',#44,#43,#36,.T.);
#54=EDGE_CURVE('',#45,#46,#37,.T.);
#55=EDGE_CURVE('',#46,#45,#38,.T.);
#56=EDGE_CURVE('',#46,#44,#30,.T.);
#57=ORIENTED_EDGE('',*,*,#47,.F.);
#58=ORIENTED_EDGE('',*,*,#48,.F.);
#59=ORIENTED_EDGE('',*,*,#49,.T.);
#60=ORIENTED_EDGE('',*,*,#50,.F.);
#61=ORIENTED_EDGE('',*,*,#51,.F.);
#62=ORIENTED_EDGE('',*,*,#49,.F.);
#63=ORIENTED_EDGE('',*,*,#52,.F.);
#64=ORIENTED_EDGE('',*,*,#53,.F.);
#65=ORIENTED_EDGE('',*,*,#47,.T.);
#66=ORIENTED_EDGE('',*,*,#48,.T.);
#67=ORIENTED_EDGE('',*,*,#54,.F.);
#68=ORIENTED_EDGE('',*,*,#55,.F.);
#69=ORIENTED_EDGE('',*,*,#50,.T.);
#70=ORIENTED_EDGE('',*,*,#51,.T.);
#71=ORIENTED_EDGE('',*,*,#54,.T.);
#72=ORIENTED_EDGE('',*,*,#56,.T.);
#73=ORIENTED_EDGE('',*,*,#53,.T.);
#74=ORIENTED_EDGE('',*,*,#52,.T.);
#75=ORIENTED_EDGE('',*,*,#56,.F.);
#76=ORIENTED_EDGE('',*,*,#55,.T.);
#77=(
BOUNDED_SURFACE()
B_SPLINE_SURFACE(1,2,((#136,#137,#138,#139,#140,#141,#142,#143,#144),(#145,
#146,#147,#148,#149,#150,#151,#152,#153)),.UNSPECIFIED.,.F.,.T.,.F.)
B_SPLINE_SURFACE_WITH_KNOTS((2,2),(3,2,2,2,3),(-0.296767432636877,2.19365658481403),
(-3.14159265358979,-1.5707963267949,0.,1.5707963267949,3.14159265358979),
 .UNSPECIFIED.)
GEOMETRIC_REPRESENTATION_ITEM()
RATIONAL_B_SPLINE_SURFACE(((1.,0.707106781186548,1.,0.707106781186548,1.,
0.707106781186548,1.,0.707106781186548,1.),(1.,0.707106781186548,1.,0.707106781186548,
1.,0.707106781186548,1.,0.707106781186548,1.)))
REPRESENTATION_ITEM('')
SURFACE()
);
#78=(
BOUNDED_SURFACE()
B_SPLINE_SURFACE(1,2,((#174,#175,#176,#177,#178,#179,#180,#181,#182),(#183,
#184,#185,#186,#187,#188,#189,#190,#191)),.UNSPECIFIED.,.F.,.T.,.F.)
B_SPLINE_SURFACE_WITH_KNOTS((2,2),(3,2,2,2,3),(-0.296799630526606,2.12453402053409),
(-3.14159265358979,-1.5707963267949,0.,1.5707963267949,3.14159265358979),
 .UNSPECIFIED.)
GEOMETRIC_REPRESENTATION_ITEM()
RATIONAL_B_SPLINE_SURFACE(((1.,0.707106781186548,1.,0.707106781186548,1.,
0.707106781186548,1.,0.707106781186548,1.),(1.,0.707106781186548,1.,0.707106781186548,
1.,0.707106781186548,1.,0.707106781186548,1.)))
REPRESENTATION_ITEM('')
SURFACE()
);
#79=ADVANCED_FACE('',(#19),#77,.T.);
#80=ADVANCED_FACE('',(#20,#15),#17,.F.);
#81=ADVANCED_FACE('',(#21,#16),#18,.F.);
#82=ADVANCED_FACE('',(#22),#78,.F.);
#83=CLOSED_SHELL('',(#79,#80,#81,#82));
#84=DERIVED_UNIT_ELEMENT(#86,1.);
#85=DERIVED_UNIT_ELEMENT(#201,3.);
#86=(
MASS_UNIT()
NAMED_UNIT(*)
SI_UNIT($,.GRAM.)
);
#87=DERIVED_UNIT((#84,#85));
#88=MEASURE_REPRESENTATION_ITEM('density measure',
POSITIVE_RATIO_MEASURE(1.),#87);
#89=PROPERTY_DEFINITION_REPRESENTATION(#94,#91);
#90=PROPERTY_DEFINITION_REPRESENTATION(#95,#92);
#91=REPRESENTATION('material name',(#93),#196);
#92=REPRESENTATION('density',(#88),#196);
#93=DESCRIPTIVE_REPRESENTATION_ITEM('Generic','Generic');
#94=PROPERTY_DEFINITION('material property','material name',#209);
#95=PROPERTY_DEFINITION('material property','density of part',#209);
#96=DATE_TIME_ROLE('creation_date');
#97=APPLIED_DATE_AND_TIME_ASSIGNMENT(#98,#96,(#209));
#98=DATE_AND_TIME(#99,#100);
#99=CALENDAR_DATE(2016,8,9);
#100=LOCAL_TIME(13,8,57.,#101);
#101=COORDINATED_UNIVERSAL_TIME_OFFSET(0,0,.BEHIND.);
#102=AXIS2_PLACEMENT_3D('placement',#135,#113,#114);
#103=AXIS2_PLACEMENT_3D('',#156,#115,#116);
#104=AXIS2_PLACEMENT_3D('',#157,#117,#118);
#105=AXIS2_PLACEMENT_3D('',#162,#119,#120);
#106=AXIS2_PLACEMENT_3D('',#163,#121,#122);
#107=AXIS2_PLACEMENT_3D('',#164,#123,#124);
#108=AXIS2_PLACEMENT_3D('',#167,#125,#126);
#109=AXIS2_PLACEMENT_3D('',#168,#127,#128);
#110=AXIS2_PLACEMENT_3D('',#169,#129,#130);
#111=AXIS2_PLACEMENT_3D('',#172,#131,#132);
#112=AXIS2_PLACEMENT_3D('',#173,#133,#134);
#113=DIRECTION('axis',(0.,0.,1.));
#114=DIRECTION('refdir',(1.,0.,0.));
#115=DIRECTION('center_axis',(-1.,0.,0.));
#116=DIRECTION('ref_axis',(0.,-0.0847978402261914,-0.996398176580514));
#117=DIRECTION('center_axis',(-1.,0.,0.));
#118=DIRECTION('ref_axis',(0.,-0.0847978402261914,-0.996398176580514));
#119=DIRECTION('center_axis',(1.,0.,0.));
#120=DIRECTION('ref_axis',(0.,-0.0847978402261912,-0.996398176580514));
#121=DIRECTION('center_axis',(1.,0.,0.));
#122=DIRECTION('ref_axis',(0.,-0.0847978402261912,-0.996398176580514));
#123=DIRECTION('center_axis',(-1.,0.,0.));
#124=DIRECTION('ref_axis',(0.,0.,1.));
#125=DIRECTION('center_axis',(-1.,0.,0.));
#126=DIRECTION('ref_axis',(0.,-1.,0.));
#127=DIRECTION('center_axis',(-1.,0.,0.));
#128=DIRECTION('ref_axis',(0.,-1.,0.));
#129=DIRECTION('center_axis',(1.,0.,0.));
#130=DIRECTION('ref_axis',(0.,0.,-1.));
#131=DIRECTION('center_axis',(1.,0.,0.));
#132=DIRECTION('ref_axis',(0.,-1.,0.));
#133=DIRECTION('center_axis',(1.,0.,0.));
#134=DIRECTION('ref_axis',(0.,-1.,0.));
#135=CARTESIAN_POINT('',(0.,0.,0.));
#136=CARTESIAN_POINT('Ctrl Pts',(6.35669663387386,1.75432009241272,3.15219061699982));
#137=CARTESIAN_POINT('Ctrl Pts',(5.51357743329712,4.64964018482542,3.15219061699982));
#138=CARTESIAN_POINT('Ctrl Pts',(5.51357743329712,4.64964018482543,2.25261113349854E-15));
#139=CARTESIAN_POINT('Ctrl Pts',(5.51357743329712,4.64964018482543,-3.15219061699982));
#140=CARTESIAN_POINT('Ctrl Pts',(6.35669663387386,1.75432009241272,-3.15219061699982));
#141=CARTESIAN_POINT('Ctrl Pts',(7.1998158344506,-1.14099999999999,-3.15219061699982));
#142=CARTESIAN_POINT('Ctrl Pts',(7.1998158344506,-1.14099999999999,-2.25261113349854E-15));
#143=CARTESIAN_POINT('Ctrl Pts',(7.1998158344506,-1.14099999999999,3.15219061699982));
#144=CARTESIAN_POINT('Ctrl Pts',(6.35669663387386,1.75432009241272,3.15219061699982));
#145=CARTESIAN_POINT('Ctrl Pts',(-0.28031495249633,-0.178382242497666,1.04802044889887));
#146=CARTESIAN_POINT('Ctrl Pts',(-0.560629904992662,0.78423551500467,1.04802044889887));
#147=CARTESIAN_POINT('Ctrl Pts',(-0.560629904992663,0.784235515004671,5.26507423329596E-16));
#148=CARTESIAN_POINT('Ctrl Pts',(-0.560629904992665,0.784235515004671,-1.04802044889886));
#149=CARTESIAN_POINT('Ctrl Pts',(-0.280314952496333,-0.178382242497665,
-1.04802044889887));
#150=CARTESIAN_POINT('Ctrl Pts',(-1.1692309412883E-15,-1.141,-1.04802044889887));
#151=CARTESIAN_POINT('Ctrl Pts',(2.78648495353755E-16,-1.141,-5.26507423329596E-16));
#152=CARTESIAN_POINT('Ctrl Pts',(1.63910879619856E-15,-1.141,1.04802044889886));
#153=CARTESIAN_POINT('Ctrl Pts',(-0.28031495249633,-0.178382242497666,1.04802044889887));
#154=CARTESIAN_POINT('',(5.5,-1.141,0.));
#155=CARTESIAN_POINT('',(5.5,1.50484944390607,2.88058712849427));
#156=CARTESIAN_POINT('Origin',(5.5,1.75,3.49676543189026E-16));
#157=CARTESIAN_POINT('Origin',(5.5,1.75,3.49676543189026E-16));
#158=CARTESIAN_POINT('',(0.,-0.0967543356980864,1.13689031947837));
#159=CARTESIAN_POINT('Ctrl Pts',(5.5,1.50484944390607,2.88058712849427));
#160=CARTESIAN_POINT('Ctrl Pts',(4.9960036108132E-16,-0.0967543356980869,
1.13689031947837));
#161=CARTESIAN_POINT('',(0.,-1.141,0.));
#162=CARTESIAN_POINT('Origin',(0.,-8.74191357972564E-16,1.74838271594513E-16));
#163=CARTESIAN_POINT('Origin',(0.,-8.74191357972564E-16,1.74838271594513E-16));
#164=CARTESIAN_POINT('Origin',(5.5,1.75,0.));
#165=CARTESIAN_POINT('',(5.5,-1.25,0.));
#166=CARTESIAN_POINT('',(5.5,1.49560647932142,2.98919452974154));
#167=CARTESIAN_POINT('Origin',(5.5,1.75,0.));
#168=CARTESIAN_POINT('Origin',(5.5,1.75,0.));
#169=CARTESIAN_POINT('Origin',(0.,0.,0.));
#170=CARTESIAN_POINT('',(0.,-1.25,0.));
#171=CARTESIAN_POINT('',(0.,-0.105997300282743,1.24549772072564));
#172=CARTESIAN_POINT('Origin',(0.,0.,0.));
#173=CARTESIAN_POINT('Origin',(0.,0.,0.));
#174=CARTESIAN_POINT('Ctrl Pts',(6.38908589587506,1.75450890318073,3.27106657330125));
#175=CARTESIAN_POINT('Ctrl Pts',(5.51417083856804,4.75901780636148,3.27106657330125));
#176=CARTESIAN_POINT('Ctrl Pts',(5.51417083856804,4.75901780636148,6.52113139802203E-15));
#177=CARTESIAN_POINT('Ctrl Pts',(5.51417083856804,4.75901780636149,-3.27106657330124));
#178=CARTESIAN_POINT('Ctrl Pts',(6.38908589587506,1.75450890318075,-3.27106657330125));
#179=CARTESIAN_POINT('Ctrl Pts',(7.26400095318209,-1.24999999999999,-3.27106657330125));
#180=CARTESIAN_POINT('Ctrl Pts',(7.26400095318209,-1.25,-5.12242522526592E-15));
#181=CARTESIAN_POINT('Ctrl Pts',(7.26400095318209,-1.25000000000001,3.27106657330124));
#182=CARTESIAN_POINT('Ctrl Pts',(6.38908589587506,1.75450890318073,3.27106657330125));
#183=CARTESIAN_POINT('Ctrl Pts',(-0.307093506240499,-0.195423140334867,
1.14813809037999));
#184=CARTESIAN_POINT('Ctrl Pts',(-0.614187012481002,0.859153719330267,1.14813809037999));
#185=CARTESIAN_POINT('Ctrl Pts',(-0.614187012481004,0.859153719330269,2.86747450443559E-15));
#186=CARTESIAN_POINT('Ctrl Pts',(-0.614187012481006,0.85915371933027,-1.14813809037999));
#187=CARTESIAN_POINT('Ctrl Pts',(-0.307093506240503,-0.195423140334863,
-1.14813809037999));
#188=CARTESIAN_POINT('Ctrl Pts',(-3.55140239176354E-16,-1.25,-1.14813809037999));
#189=CARTESIAN_POINT('Ctrl Pts',(1.82487445976773E-15,-1.25,-1.46876833167948E-15));
#190=CARTESIAN_POINT('Ctrl Pts',(3.83824643109829E-15,-1.25,1.14813809037999));
#191=CARTESIAN_POINT('Ctrl Pts',(-0.307093506240499,-0.195423140334867,
1.14813809037999));
#192=CARTESIAN_POINT('Ctrl Pts',(3.33066907387547E-16,-0.105997300282744,
1.24549772072564));
#193=CARTESIAN_POINT('Ctrl Pts',(5.5,1.49560647932141,2.98919452974154));
#194=UNCERTAINTY_MEASURE_WITH_UNIT(LENGTH_MEASURE(0.000393700787401575),
#199,'DISTANCE_ACCURACY_VALUE',
'Maximum model space distance between geometric entities at asserted c
onnectivities');
#195=UNCERTAINTY_MEASURE_WITH_UNIT(LENGTH_MEASURE(0.000393700787401575),
#199,'DISTANCE_ACCURACY_VALUE',
'Maximum model space distance between geometric entities at asserted c
onnectivities');
#196=(
GEOMETRIC_REPRESENTATION_CONTEXT(3)
GLOBAL_UNCERTAINTY_ASSIGNED_CONTEXT((#194))
GLOBAL_UNIT_ASSIGNED_CONTEXT((#199,#203,#204))
REPRESENTATION_CONTEXT('','3D')
);
#197=(
GEOMETRIC_REPRESENTATION_CONTEXT(3)
GLOBAL_UNCERTAINTY_ASSIGNED_CONTEXT((#195))
GLOBAL_UNIT_ASSIGNED_CONTEXT((#199,#203,#204))
REPRESENTATION_CONTEXT('','3D')
);
#198=DIMENSIONAL_EXPONENTS(1.,0.,0.,0.,0.,0.,0.);
#199=(
CONVERSION_BASED_UNIT('inch',#202)
LENGTH_UNIT()
NAMED_UNIT(#198)
);
#200=(
LENGTH_UNIT()
NAMED_UNIT(*)
SI_UNIT(.MILLI.,.METRE.)
);
#201=(
LENGTH_UNIT()
NAMED_UNIT(*)
SI_UNIT(.CENTI.,.METRE.)
);
#202=LENGTH_MEASURE_WITH_UNIT(LENGTH_MEASURE(25.4),#200);
#203=(
NAMED_UNIT(*)
PLANE_ANGLE_UNIT()
SI_UNIT($,.RADIAN.)
);
#204=(
NAMED_UNIT(*)
SI_UNIT($,.STERADIAN.)
SOLID_ANGLE_UNIT()
);
#205=SHAPE_DEFINITION_REPRESENTATION(#206,#207);
#206=PRODUCT_DEFINITION_SHAPE('',$,#209);
#207=SHAPE_REPRESENTATION('',(#102),#196);
#208=PRODUCT_DEFINITION_CONTEXT('part definition',#213,'design');
#209=PRODUCT_DEFINITION('32W-6X2.5X5.5','32W',#210,#208);
#210=PRODUCT_DEFINITION_FORMATION('',$,#215);
#211=PRODUCT_RELATED_PRODUCT_CATEGORY('32W','32W',(#215));
#212=APPLICATION_PROTOCOL_DEFINITION('international standard',
'automotive_design',2009,#213);
#213=APPLICATION_CONTEXT(
'Core Data for Automotive Mechanical Design Process');
#214=PRODUCT_CONTEXT('part definition',#213,'mechanical');
#215=PRODUCT('32W-6X2.5X5.5','32W',$,(#214));
#216=PRESENTATION_STYLE_ASSIGNMENT((#217));
#217=SURFACE_STYLE_USAGE(.BOTH.,#220);
#218=SURFACE_STYLE_RENDERING_WITH_PROPERTIES($,#224,(#219));
#219=SURFACE_STYLE_TRANSPARENT(0.);
#220=SURFACE_SIDE_STYLE('',(#221,#218));
#221=SURFACE_STYLE_FILL_AREA(#222);
#222=FILL_AREA_STYLE('',(#223));
#223=FILL_AREA_STYLE_COLOUR('',#224);
#224=COLOUR_RGB('',0.749019607843137,0.749019607843137,0.749019607843137);
ENDSEC;
END-ISO-10303-21;
