ISO-10303-21;
HEADER;
/* Generated by software containing ST-Developer
 * from STEP Tools, Inc. (www.steptools.com) 
 */

FILE_DESCRIPTION(
/* description */ (''),
/* implementation_level */ '2;1');

FILE_NAME(
/* name */ 
'W:\\AUTOCAD\\AutoCad - Projects\\Numbered\\7ERWWW\\7ERWWW\\7ERWWW-25X
15.stp',
/* time_stamp */ '2021-09-01T15:03:00-04:00',
/* author */ ('rick'),
/* organization */ (''),
/* preprocessor_version */ 'ST-DEVELOPER v18',
/* originating_system */ 'Autodesk Inventor 2020',
/* authorisation */ '');

FILE_SCHEMA (('AUTOMOTIVE_DESIGN { 1 0 10303 214 3 1 1 }'));
ENDSEC;

DATA;
#10=MECHANICAL_DESIGN_GEOMETRIC_PRESENTATION_REPRESENTATION('',(#13),#343);
#11=SHAPE_REPRESENTATION_RELATIONSHIP('SRR','None',#353,#12);
#12=ADVANCED_BREP_SHAPE_REPRESENTATION('',(#14),#342);
#13=STYLED_ITEM('',(#362),#14);
#14=MANIFOLD_SOLID_BREP('Solid1',#123);
#15=FACE_BOUND('',#33,.T.);
#16=FACE_BOUND('',#35,.T.);
#17=FACE_BOUND('',#37,.T.);
#18=FACE_BOUND('',#39,.T.);
#19=FACE_BOUND('',#41,.T.);
#20=PLANE('',#147);
#21=PLANE('',#154);
#22=PLANE('',#155);
#23=FACE_OUTER_BOUND('',#30,.T.);
#24=FACE_OUTER_BOUND('',#31,.T.);
#25=FACE_OUTER_BOUND('',#32,.T.);
#26=FACE_OUTER_BOUND('',#34,.T.);
#27=FACE_OUTER_BOUND('',#36,.T.);
#28=FACE_OUTER_BOUND('',#38,.T.);
#29=FACE_OUTER_BOUND('',#40,.T.);
#30=EDGE_LOOP('',(#84,#85,#86,#87,#88));
#31=EDGE_LOOP('',(#89,#90,#91,#92,#93));
#32=EDGE_LOOP('',(#94));
#33=EDGE_LOOP('',(#95));
#34=EDGE_LOOP('',(#96,#97,#98,#99));
#35=EDGE_LOOP('',(#100,#101));
#36=EDGE_LOOP('',(#102,#103,#104,#105));
#37=EDGE_LOOP('',(#106,#107));
#38=EDGE_LOOP('',(#108));
#39=EDGE_LOOP('',(#109));
#40=EDGE_LOOP('',(#110));
#41=EDGE_LOOP('',(#111));
#42=B_SPLINE_CURVE_WITH_KNOTS('',3,(#195,#196,#197,#198,#199,#200,#201,
#202,#203,#204,#205,#206,#207,#208),.UNSPECIFIED.,.F.,.F.,(4,2,2,2,2,2,
4),(0.,1.1046939777762,1.6570409666643,2.2093879555524,2.95932234942472,
3.33428954636088,3.70925674329704),.UNSPECIFIED.);
#43=B_SPLINE_CURVE_WITH_KNOTS('',3,(#209,#210,#211,#212,#213,#214,#215,
#216,#217,#218,#219,#220,#221,#222,#223,#224,#225,#226,#227,#228,#229,#230,
#231,#232,#233,#234,#235,#236,#237,#238,#239,#240,#241,#242,#243,#244,#245,
#246,#247,#248,#249,#250,#251,#252,#253,#254),.UNSPECIFIED.,.F.,.F.,(4,
2,2,2,2,2,2,2,2,2,2,2,2,2,2,2,2,2,2,2,2,2,4),(3.70925674329704,4.04534733278362,
4.38143792227021,4.7175285117568,5.05361910124338,5.38464277659173,5.71566645194008,
6.04669012728842,6.37771380263677,6.70873747798511,7.03976115333346,7.37078482868181,
7.70180850403015,8.03789909351674,8.37398968300333,8.71008027248991,9.0461708619765,
9.42113805891266,9.79610525584882,10.5460396497211,11.0983866386092,11.6507336274973,
12.7554276052735),.UNSPECIFIED.);
#44=B_SPLINE_CURVE_WITH_KNOTS('',3,(#258,#259,#260,#261,#262,#263,#264,
#265,#266,#267,#268,#269,#270,#271,#272,#273,#274,#275,#276,#277,#278,#279,
#280,#281,#282,#283,#284,#285,#286,#287,#288,#289,#290,#291,#292,#293,#294,
#295,#296,#297,#298,#299,#300,#301,#302,#303,#304,#305),.UNSPECIFIED.,.F.,
 .F.,(4,2,2,2,2,2,2,2,2,2,2,2,2,2,2,2,2,2,2,2,2,2,2,4),(0.,0.597778645764878,
1.19555729152976,1.79333593729464,2.39111458305951,3.20209564662666,3.60758617841023,
4.0130767101938,4.37856664314439,4.74405657609499,5.10954650904558,5.47503644199617,
5.83838403953416,6.20173163707214,6.56507923461012,6.9284268321481,7.29177442968608,
7.65512202722407,8.01846962476205,8.38181722230003,8.74730715525062,9.11279708820122,
9.47828702115181,9.84377695410241),.UNSPECIFIED.);
#45=B_SPLINE_CURVE_WITH_KNOTS('',3,(#306,#307,#308,#309,#310,#311,#312,
#313,#314,#315,#316,#317,#318,#319,#320,#321),.UNSPECIFIED.,.F.,.F.,(4,
2,2,2,2,2,2,4),(9.84377695410241,10.249267485886,10.6547580176695,11.4657390812367,
12.0635177270016,12.6612963727664,13.2590750185313,13.8568536642962),
 .UNSPECIFIED.);
#46=LINE('',#193,#50);
#47=LINE('',#323,#51);
#48=LINE('',#330,#52);
#49=LINE('',#336,#53);
#50=VECTOR('',#162,0.685);
#51=VECTOR('',#165,0.75);
#52=VECTOR('',#174,1.185);
#53=VECTOR('',#181,1.25);
#54=CIRCLE('',#144,0.685);
#55=CIRCLE('',#146,0.75);
#56=CIRCLE('',#149,1.185);
#57=CIRCLE('',#150,1.185);
#58=CIRCLE('',#152,1.25);
#59=CIRCLE('',#153,1.25);
#60=VERTEX_POINT('',#190);
#61=VERTEX_POINT('',#192);
#62=VERTEX_POINT('',#194);
#63=VERTEX_POINT('',#256);
#64=VERTEX_POINT('',#257);
#65=VERTEX_POINT('',#322);
#66=VERTEX_POINT('',#327);
#67=VERTEX_POINT('',#329);
#68=VERTEX_POINT('',#333);
#69=VERTEX_POINT('',#335);
#70=EDGE_CURVE('',#60,#60,#54,.T.);
#71=EDGE_CURVE('',#60,#61,#46,.T.);
#72=EDGE_CURVE('',#62,#61,#42,.T.);
#73=EDGE_CURVE('',#61,#62,#43,.T.);
#74=EDGE_CURVE('',#63,#64,#44,.T.);
#75=EDGE_CURVE('',#64,#63,#45,.T.);
#76=EDGE_CURVE('',#64,#65,#47,.T.);
#77=EDGE_CURVE('',#65,#65,#55,.T.);
#78=EDGE_CURVE('',#66,#66,#56,.T.);
#79=EDGE_CURVE('',#66,#67,#48,.T.);
#80=EDGE_CURVE('',#67,#67,#57,.T.);
#81=EDGE_CURVE('',#68,#68,#58,.T.);
#82=EDGE_CURVE('',#68,#69,#49,.T.);
#83=EDGE_CURVE('',#69,#69,#59,.T.);
#84=ORIENTED_EDGE('',*,*,#70,.F.);
#85=ORIENTED_EDGE('',*,*,#71,.T.);
#86=ORIENTED_EDGE('',*,*,#72,.F.);
#87=ORIENTED_EDGE('',*,*,#73,.F.);
#88=ORIENTED_EDGE('',*,*,#71,.F.);
#89=ORIENTED_EDGE('',*,*,#74,.F.);
#90=ORIENTED_EDGE('',*,*,#75,.F.);
#91=ORIENTED_EDGE('',*,*,#76,.T.);
#92=ORIENTED_EDGE('',*,*,#77,.T.);
#93=ORIENTED_EDGE('',*,*,#76,.F.);
#94=ORIENTED_EDGE('',*,*,#77,.F.);
#95=ORIENTED_EDGE('',*,*,#70,.T.);
#96=ORIENTED_EDGE('',*,*,#78,.F.);
#97=ORIENTED_EDGE('',*,*,#79,.T.);
#98=ORIENTED_EDGE('',*,*,#80,.F.);
#99=ORIENTED_EDGE('',*,*,#79,.F.);
#100=ORIENTED_EDGE('',*,*,#72,.T.);
#101=ORIENTED_EDGE('',*,*,#73,.T.);
#102=ORIENTED_EDGE('',*,*,#81,.F.);
#103=ORIENTED_EDGE('',*,*,#82,.T.);
#104=ORIENTED_EDGE('',*,*,#83,.T.);
#105=ORIENTED_EDGE('',*,*,#82,.F.);
#106=ORIENTED_EDGE('',*,*,#74,.T.);
#107=ORIENTED_EDGE('',*,*,#75,.T.);
#108=ORIENTED_EDGE('',*,*,#83,.F.);
#109=ORIENTED_EDGE('',*,*,#78,.T.);
#110=ORIENTED_EDGE('',*,*,#81,.T.);
#111=ORIENTED_EDGE('',*,*,#80,.T.);
#112=CYLINDRICAL_SURFACE('',#143,0.685);
#113=CYLINDRICAL_SURFACE('',#145,0.75);
#114=CYLINDRICAL_SURFACE('',#148,1.185);
#115=CYLINDRICAL_SURFACE('',#151,1.25);
#116=ADVANCED_FACE('',(#23),#112,.F.);
#117=ADVANCED_FACE('',(#24),#113,.T.);
#118=ADVANCED_FACE('',(#25,#15),#20,.T.);
#119=ADVANCED_FACE('',(#26,#16),#114,.F.);
#120=ADVANCED_FACE('',(#27,#17),#115,.T.);
#121=ADVANCED_FACE('',(#28,#18),#21,.T.);
#122=ADVANCED_FACE('',(#29,#19),#22,.F.);
#123=CLOSED_SHELL('',(#116,#117,#118,#119,#120,#121,#122));
#124=DERIVED_UNIT_ELEMENT(#126,1.);
#125=DERIVED_UNIT_ELEMENT(#347,3.);
#126=(
MASS_UNIT()
NAMED_UNIT(*)
SI_UNIT($,.GRAM.)
);
#127=DERIVED_UNIT((#124,#125));
#128=MEASURE_REPRESENTATION_ITEM('density measure',
POSITIVE_RATIO_MEASURE(1.),#127);
#129=PROPERTY_DEFINITION_REPRESENTATION(#134,#131);
#130=PROPERTY_DEFINITION_REPRESENTATION(#135,#132);
#131=REPRESENTATION('material name',(#133),#342);
#132=REPRESENTATION('density',(#128),#342);
#133=DESCRIPTIVE_REPRESENTATION_ITEM('Generic','Generic');
#134=PROPERTY_DEFINITION('material property','material name',#355);
#135=PROPERTY_DEFINITION('material property','density of part',#355);
#136=DATE_TIME_ROLE('creation_date');
#137=APPLIED_DATE_AND_TIME_ASSIGNMENT(#138,#136,(#355));
#138=DATE_AND_TIME(#139,#140);
#139=CALENDAR_DATE(2012,29,6);
#140=LOCAL_TIME(12,39,31.,#141);
#141=COORDINATED_UNIVERSAL_TIME_OFFSET(0,0,.BEHIND.);
#142=AXIS2_PLACEMENT_3D('placement',#188,#156,#157);
#143=AXIS2_PLACEMENT_3D('',#189,#158,#159);
#144=AXIS2_PLACEMENT_3D('',#191,#160,#161);
#145=AXIS2_PLACEMENT_3D('',#255,#163,#164);
#146=AXIS2_PLACEMENT_3D('',#324,#166,#167);
#147=AXIS2_PLACEMENT_3D('',#325,#168,#169);
#148=AXIS2_PLACEMENT_3D('',#326,#170,#171);
#149=AXIS2_PLACEMENT_3D('',#328,#172,#173);
#150=AXIS2_PLACEMENT_3D('',#331,#175,#176);
#151=AXIS2_PLACEMENT_3D('',#332,#177,#178);
#152=AXIS2_PLACEMENT_3D('',#334,#179,#180);
#153=AXIS2_PLACEMENT_3D('',#337,#182,#183);
#154=AXIS2_PLACEMENT_3D('',#338,#184,#185);
#155=AXIS2_PLACEMENT_3D('',#339,#186,#187);
#156=DIRECTION('axis',(0.,0.,1.));
#157=DIRECTION('refdir',(1.,0.,0.));
#158=DIRECTION('center_axis',(0.,0.,-1.));
#159=DIRECTION('ref_axis',(-1.,0.,0.));
#160=DIRECTION('center_axis',(0.,0.,-1.));
#161=DIRECTION('ref_axis',(-1.,0.,0.));
#162=DIRECTION('',(0.,0.,-1.));
#163=DIRECTION('center_axis',(0.,0.,-1.));
#164=DIRECTION('ref_axis',(-1.,0.,0.));
#165=DIRECTION('',(0.,0.,1.));
#166=DIRECTION('center_axis',(0.,0.,-1.));
#167=DIRECTION('ref_axis',(-1.,0.,0.));
#168=DIRECTION('center_axis',(0.,0.,1.));
#169=DIRECTION('ref_axis',(1.,0.,0.));
#170=DIRECTION('center_axis',(-1.,0.,0.));
#171=DIRECTION('ref_axis',(0.,-1.,0.));
#172=DIRECTION('center_axis',(-1.,0.,0.));
#173=DIRECTION('ref_axis',(0.,-1.,0.));
#174=DIRECTION('',(-1.,0.,0.));
#175=DIRECTION('center_axis',(1.,0.,0.));
#176=DIRECTION('ref_axis',(0.,-1.,0.));
#177=DIRECTION('center_axis',(-1.,0.,0.));
#178=DIRECTION('ref_axis',(0.,-1.,0.));
#179=DIRECTION('center_axis',(-1.,0.,0.));
#180=DIRECTION('ref_axis',(0.,-1.,0.));
#181=DIRECTION('',(1.,0.,0.));
#182=DIRECTION('center_axis',(-1.,0.,0.));
#183=DIRECTION('ref_axis',(0.,-1.,0.));
#184=DIRECTION('center_axis',(1.,0.,0.));
#185=DIRECTION('ref_axis',(0.,0.,-1.));
#186=DIRECTION('center_axis',(1.,0.,0.));
#187=DIRECTION('ref_axis',(0.,0.,-1.));
#188=CARTESIAN_POINT('',(0.,0.,0.));
#189=CARTESIAN_POINT('Origin',(0.,-0.5,2.156));
#190=CARTESIAN_POINT('',(0.685,-0.5,2.156));
#191=CARTESIAN_POINT('Origin',(0.,-0.5,2.156));
#192=CARTESIAN_POINT('',(0.685,-0.5,1.07434863987441));
#193=CARTESIAN_POINT('',(0.685,-0.5,2.156));
#194=CARTESIAN_POINT('',(0.,-1.185,0.));
#195=CARTESIAN_POINT('Ctrl Pts',(0.,-1.185,0.));
#196=CARTESIAN_POINT('Ctrl Pts',(0.0877428016862196,-1.185,0.115405202406362));
#197=CARTESIAN_POINT('Ctrl Pts',(0.183281375672558,-1.16729790412107,0.240915931584983));
#198=CARTESIAN_POINT('Ctrl Pts',(0.318414745001776,-1.10848203246354,0.423783691207235));
#199=CARTESIAN_POINT('Ctrl Pts',(0.362120628112755,-1.08364153990329,0.483899393605053));
#200=CARTESIAN_POINT('Ctrl Pts',(0.443698285263443,-1.02430966788756,0.599355749735193));
#201=CARTESIAN_POINT('Ctrl Pts',(0.48156371723956,-0.989810461143279,0.654696861974674));
#202=CARTESIAN_POINT('Ctrl Pts',(0.560698969492799,-0.899526536313515,0.776328616160499));
#203=CARTESIAN_POINT('Ctrl Pts',(0.604478101452574,-0.832885216307533,0.848912471426886));
#204=CARTESIAN_POINT('Ctrl Pts',(0.651199021764218,-0.71658753677689,0.945123605215349));
#205=CARTESIAN_POINT('Ctrl Pts',(0.663676068778741,-0.675153934857219,0.97517988167225));
#206=CARTESIAN_POINT('Ctrl Pts',(0.680583389432972,-0.589168801600229,1.02941185184277));
#207=CARTESIAN_POINT('Ctrl Pts',(0.685,-0.544613386715603,1.05358564681063));
#208=CARTESIAN_POINT('Ctrl Pts',(0.685,-0.5,1.07434863987441));
#209=CARTESIAN_POINT('Ctrl Pts',(0.685,-0.5,1.07434863987441));
#210=CARTESIAN_POINT('Ctrl Pts',(0.685,-0.460012130226973,1.09295892534827));
#211=CARTESIAN_POINT('Ctrl Pts',(0.681434328142465,-0.417633540579426,1.10989206626844));
#212=CARTESIAN_POINT('Ctrl Pts',(0.665430652135505,-0.331658013410422,1.13854342693999));
#213=CARTESIAN_POINT('Ctrl Pts',(0.652981817275211,-0.288064951574796,1.1502672255567));
#214=CARTESIAN_POINT('Ctrl Pts',(0.619152614336377,-0.203433339570316,1.1682084438868));
#215=CARTESIAN_POINT('Ctrl Pts',(0.59772499388247,-0.162289453245304,1.17446568409355));
#216=CARTESIAN_POINT('Ctrl Pts',(0.547433659840267,-0.0857054551469805,
1.18252360850231));
#217=CARTESIAN_POINT('Ctrl Pts',(0.518567772151618,-0.0502694273158068,
1.18434951778365));
#218=CARTESIAN_POINT('Ctrl Pts',(0.45708070794962,0.0120440814718347,1.18534224423805));
#219=CARTESIAN_POINT('Ctrl Pts',(0.422584578010058,0.0410288918875504,1.18456574628462));
#220=CARTESIAN_POINT('Ctrl Pts',(0.347413433679134,0.0921096971626556,1.18169166069919));
#221=CARTESIAN_POINT('Ctrl Pts',(0.306740115199674,0.114209572657284,1.17961874141762));
#222=CARTESIAN_POINT('Ctrl Pts',(0.221825249014452,0.149720273399549,1.17563942624908));
#223=CARTESIAN_POINT('Ctrl Pts',(0.177513923364223,0.163159402766614,1.17374762813584));
#224=CARTESIAN_POINT('Ctrl Pts',(0.0883225488394064,0.180801523021904,1.17115980746385));
#225=CARTESIAN_POINT('Ctrl Pts',(0.0434414272110691,0.185,1.17046999107196));
#226=CARTESIAN_POINT('Ctrl Pts',(-0.043441427211069,0.185,1.17046999107196));
#227=CARTESIAN_POINT('Ctrl Pts',(-0.0883225488394062,0.180801523021904,
1.17115980746385));
#228=CARTESIAN_POINT('Ctrl Pts',(-0.177513923364223,0.163159402766614,1.17374762813584));
#229=CARTESIAN_POINT('Ctrl Pts',(-0.221825249014452,0.149720273399549,1.17563942624908));
#230=CARTESIAN_POINT('Ctrl Pts',(-0.306740115199674,0.114209572657284,1.17961874141762));
#231=CARTESIAN_POINT('Ctrl Pts',(-0.347413433679134,0.0921096971626557,
1.18169166069919));
#232=CARTESIAN_POINT('Ctrl Pts',(-0.422584578010058,0.0410288918875505,
1.18456574628462));
#233=CARTESIAN_POINT('Ctrl Pts',(-0.45708070794962,0.0120440814718347,1.18534224423805));
#234=CARTESIAN_POINT('Ctrl Pts',(-0.518567772151618,-0.0502694273158068,
1.18434951778365));
#235=CARTESIAN_POINT('Ctrl Pts',(-0.547433659840267,-0.0857054551469805,
1.18252360850231));
#236=CARTESIAN_POINT('Ctrl Pts',(-0.59772499388247,-0.162289453245304,1.17446568409355));
#237=CARTESIAN_POINT('Ctrl Pts',(-0.619152614336377,-0.203433339570316,
1.1682084438868));
#238=CARTESIAN_POINT('Ctrl Pts',(-0.652981817275211,-0.288064951574796,
1.1502672255567));
#239=CARTESIAN_POINT('Ctrl Pts',(-0.665430652135505,-0.331658013410422,
1.13854342693999));
#240=CARTESIAN_POINT('Ctrl Pts',(-0.681434328142465,-0.417633540579426,
1.10989206626844));
#241=CARTESIAN_POINT('Ctrl Pts',(-0.685,-0.460012130226973,1.09295892534827));
#242=CARTESIAN_POINT('Ctrl Pts',(-0.685,-0.544613386715603,1.05358564681063));
#243=CARTESIAN_POINT('Ctrl Pts',(-0.680583389432972,-0.589168801600229,
1.02941185184277));
#244=CARTESIAN_POINT('Ctrl Pts',(-0.663676068778741,-0.675153934857218,
0.97517988167225));
#245=CARTESIAN_POINT('Ctrl Pts',(-0.651199021764219,-0.71658753677689,0.945123605215349));
#246=CARTESIAN_POINT('Ctrl Pts',(-0.604478101452574,-0.832885216307533,
0.848912471426886));
#247=CARTESIAN_POINT('Ctrl Pts',(-0.560698969492799,-0.899526536313515,
0.776328616160499));
#248=CARTESIAN_POINT('Ctrl Pts',(-0.481563717239561,-0.989810461143279,
0.654696861974674));
#249=CARTESIAN_POINT('Ctrl Pts',(-0.443698285263443,-1.02430966788756,0.599355749735193));
#250=CARTESIAN_POINT('Ctrl Pts',(-0.362120628112755,-1.08364153990328,0.483899393605053));
#251=CARTESIAN_POINT('Ctrl Pts',(-0.318414745001776,-1.10848203246354,0.423783691207235));
#252=CARTESIAN_POINT('Ctrl Pts',(-0.183281375672558,-1.16729790412107,0.240915931584983));
#253=CARTESIAN_POINT('Ctrl Pts',(-0.0877428016862196,-1.185,0.115405202406362));
#254=CARTESIAN_POINT('Ctrl Pts',(0.,-1.185,0.));
#255=CARTESIAN_POINT('Origin',(0.,-0.5,2.156));
#256=CARTESIAN_POINT('',(0.,-1.25,0.));
#257=CARTESIAN_POINT('',(0.75,-0.5,1.14564392373896));
#258=CARTESIAN_POINT('Ctrl Pts',(0.,-1.25,0.));
#259=CARTESIAN_POINT('Ctrl Pts',(-0.0480397854742746,-1.25,0.0620190963657474));
#260=CARTESIAN_POINT('Ctrl Pts',(-0.0982060268926954,-1.24532452762826,
0.126771263131131));
#261=CARTESIAN_POINT('Ctrl Pts',(-0.199177215354921,-1.22490103575659,0.257917787921805));
#262=CARTESIAN_POINT('Ctrl Pts',(-0.249979935355341,-1.20915644316658,0.324314394205258));
#263=CARTESIAN_POINT('Ctrl Pts',(-0.348612774878636,-1.16622959982474,0.455134864414243));
#264=CARTESIAN_POINT('Ctrl Pts',(-0.396469035880176,-1.13903362362039,0.519598017423826));
#265=CARTESIAN_POINT('Ctrl Pts',(-0.485819618200775,-1.07404787853848,0.643273542466704));
#266=CARTESIAN_POINT('Ctrl Pts',(-0.527307534691979,-1.03624979489433,0.702486172483464));
#267=CARTESIAN_POINT('Ctrl Pts',(-0.614016189454523,-0.937288424196349,
0.832361552626995));
#268=CARTESIAN_POINT('Ctrl Pts',(-0.661949601665783,-0.864266152080992,
0.909578560578667));
#269=CARTESIAN_POINT('Ctrl Pts',(-0.713059922655798,-0.736933143249373,
1.0111265341132));
#270=CARTESIAN_POINT('Ctrl Pts',(-0.72670143844955,-0.691580461437685,1.0427034764017));
#271=CARTESIAN_POINT('Ctrl Pts',(-0.745178811185406,-0.597501759970929,
1.09932057258753));
#272=CARTESIAN_POINT('Ctrl Pts',(-0.75,-0.548771418779163,1.12435833151935));
#273=CARTESIAN_POINT('Ctrl Pts',(-0.75,-0.456039756338834,1.16482974699096));
#274=CARTESIAN_POINT('Ctrl Pts',(-0.746063534376124,-0.409526532202408,
1.18203665361626));
#275=CARTESIAN_POINT('Ctrl Pts',(-0.728483019124924,-0.315314492733755,
1.21057812703053));
#276=CARTESIAN_POINT('Ctrl Pts',(-0.714828219557553,-0.267619676209082,
1.22191927030654));
#277=CARTESIAN_POINT('Ctrl Pts',(-0.677828209238305,-0.175147812774522,
1.23855973807764));
#278=CARTESIAN_POINT('Ctrl Pts',(-0.65443199469021,-0.130253835390322,1.24389934680232));
#279=CARTESIAN_POINT('Ctrl Pts',(-0.59963794477178,-0.0467585663204924,
1.24982610112506));
#280=CARTESIAN_POINT('Ctrl Pts',(-0.568237830998728,-0.00816073817099661,
1.25044094314693));
#281=CARTESIAN_POINT('Ctrl Pts',(-0.501160962506028,0.060009728985005,1.24902134349012));
#282=CARTESIAN_POINT('Ctrl Pts',(-0.463357747244915,0.0918470259310856,
1.24693955757375));
#283=CARTESIAN_POINT('Ctrl Pts',(-0.380981202200507,0.147948012956149,1.24153353637866));
#284=CARTESIAN_POINT('Ctrl Pts',(-0.336409294047456,0.17221646032673,1.2382370439334));
#285=CARTESIAN_POINT('Ctrl Pts',(-0.243332495173358,0.211221090786873,1.23218309126562));
#286=CARTESIAN_POINT('Ctrl Pts',(-0.194750228831677,0.225988112149903,1.22944168301204));
#287=CARTESIAN_POINT('Ctrl Pts',(-0.0969263648180785,0.245380218594264,
1.22571857586546));
#288=CARTESIAN_POINT('Ctrl Pts',(-0.0476834117503913,0.25,1.22474487139159));
#289=CARTESIAN_POINT('Ctrl Pts',(0.0476834117503913,0.25,1.22474487139159));
#290=CARTESIAN_POINT('Ctrl Pts',(0.0969263648180785,0.245380218594264,1.22571857586546));
#291=CARTESIAN_POINT('Ctrl Pts',(0.194750228831677,0.225988112149903,1.22944168301204));
#292=CARTESIAN_POINT('Ctrl Pts',(0.243332495173358,0.211221090786873,1.23218309126562));
#293=CARTESIAN_POINT('Ctrl Pts',(0.336409294047456,0.17221646032673,1.2382370439334));
#294=CARTESIAN_POINT('Ctrl Pts',(0.380981202200508,0.147948012956149,1.24153353637866));
#295=CARTESIAN_POINT('Ctrl Pts',(0.463357747244916,0.0918470259310853,1.24693955757375));
#296=CARTESIAN_POINT('Ctrl Pts',(0.501160962506028,0.060009728985005,1.24902134349012));
#297=CARTESIAN_POINT('Ctrl Pts',(0.568237830998728,-0.00816073817099666,
1.25044094314693));
#298=CARTESIAN_POINT('Ctrl Pts',(0.59963794477178,-0.0467585663204927,1.24982610112506));
#299=CARTESIAN_POINT('Ctrl Pts',(0.65443199469021,-0.130253835390323,1.24389934680232));
#300=CARTESIAN_POINT('Ctrl Pts',(0.677828209238305,-0.175147812774522,1.23855973807764));
#301=CARTESIAN_POINT('Ctrl Pts',(0.714828219557553,-0.267619676209082,1.22191927030654));
#302=CARTESIAN_POINT('Ctrl Pts',(0.728483019124924,-0.315314492733754,1.21057812703053));
#303=CARTESIAN_POINT('Ctrl Pts',(0.746063534376124,-0.409526532202408,1.18203665361626));
#304=CARTESIAN_POINT('Ctrl Pts',(0.75,-0.456039756338833,1.16482974699096));
#305=CARTESIAN_POINT('Ctrl Pts',(0.75,-0.5,1.14564392373896));
#306=CARTESIAN_POINT('Ctrl Pts',(0.75,-0.5,1.14564392373896));
#307=CARTESIAN_POINT('Ctrl Pts',(0.75,-0.548771418779163,1.12435833151935));
#308=CARTESIAN_POINT('Ctrl Pts',(0.745178811185406,-0.597501759970928,1.09932057258753));
#309=CARTESIAN_POINT('Ctrl Pts',(0.72670143844955,-0.691580461437685,1.0427034764017));
#310=CARTESIAN_POINT('Ctrl Pts',(0.713059922655798,-0.736933143249373,1.0111265341132));
#311=CARTESIAN_POINT('Ctrl Pts',(0.661949601665783,-0.864266152080992,0.909578560578667));
#312=CARTESIAN_POINT('Ctrl Pts',(0.614016189454523,-0.937288424196349,0.832361552626995));
#313=CARTESIAN_POINT('Ctrl Pts',(0.527307534691979,-1.03624979489433,0.702486172483464));
#314=CARTESIAN_POINT('Ctrl Pts',(0.485819618200775,-1.07404787853848,0.643273542466703));
#315=CARTESIAN_POINT('Ctrl Pts',(0.396469035880176,-1.13903362362039,0.519598017423825));
#316=CARTESIAN_POINT('Ctrl Pts',(0.348612774878636,-1.16622959982474,0.455134864414243));
#317=CARTESIAN_POINT('Ctrl Pts',(0.249979935355341,-1.20915644316658,0.324314394205258));
#318=CARTESIAN_POINT('Ctrl Pts',(0.199177215354921,-1.22490103575659,0.257917787921805));
#319=CARTESIAN_POINT('Ctrl Pts',(0.0982060268926959,-1.24532452762826,0.126771263131131));
#320=CARTESIAN_POINT('Ctrl Pts',(0.0480397854742746,-1.25,0.0620190963657476));
#321=CARTESIAN_POINT('Ctrl Pts',(0.,-1.25,0.));
#322=CARTESIAN_POINT('',(0.75,-0.5,2.156));
#323=CARTESIAN_POINT('',(0.75,-0.5,2.156));
#324=CARTESIAN_POINT('Origin',(0.,-0.5,2.156));
#325=CARTESIAN_POINT('Origin',(-3.82469159145332E-17,-0.5,2.156));
#326=CARTESIAN_POINT('Origin',(2.344,0.,0.));
#327=CARTESIAN_POINT('',(2.344,1.185,1.45120645698961E-16));
#328=CARTESIAN_POINT('Origin',(2.344,0.,0.));
#329=CARTESIAN_POINT('',(-2.344,1.185,1.45120645698961E-16));
#330=CARTESIAN_POINT('',(2.344,1.185,-1.45120645698961E-16));
#331=CARTESIAN_POINT('Origin',(-2.344,0.,0.));
#332=CARTESIAN_POINT('Origin',(2.344,0.,0.));
#333=CARTESIAN_POINT('',(-2.344,1.25,-1.53080849893419E-16));
#334=CARTESIAN_POINT('Origin',(-2.344,0.,0.));
#335=CARTESIAN_POINT('',(2.344,1.25,1.53080849893419E-16));
#336=CARTESIAN_POINT('',(2.344,1.25,-1.53080849893419E-16));
#337=CARTESIAN_POINT('Origin',(2.344,0.,0.));
#338=CARTESIAN_POINT('Origin',(2.344,-4.9468185594953E-17,1.83557240519174E-17));
#339=CARTESIAN_POINT('Origin',(-2.344,0.,0.));
#340=UNCERTAINTY_MEASURE_WITH_UNIT(LENGTH_MEASURE(0.000393700787401575),
#345,'DISTANCE_ACCURACY_VALUE',
'Maximum model space distance between geometric entities at asserted c
onnectivities');
#341=UNCERTAINTY_MEASURE_WITH_UNIT(LENGTH_MEASURE(0.000393700787401575),
#345,'DISTANCE_ACCURACY_VALUE',
'Maximum model space distance between geometric entities at asserted c
onnectivities');
#342=(
GEOMETRIC_REPRESENTATION_CONTEXT(3)
GLOBAL_UNCERTAINTY_ASSIGNED_CONTEXT((#340))
GLOBAL_UNIT_ASSIGNED_CONTEXT((#345,#349,#350))
REPRESENTATION_CONTEXT('','3D')
);
#343=(
GEOMETRIC_REPRESENTATION_CONTEXT(3)
GLOBAL_UNCERTAINTY_ASSIGNED_CONTEXT((#341))
GLOBAL_UNIT_ASSIGNED_CONTEXT((#345,#349,#350))
REPRESENTATION_CONTEXT('','3D')
);
#344=DIMENSIONAL_EXPONENTS(1.,0.,0.,0.,0.,0.,0.);
#345=(
CONVERSION_BASED_UNIT('inch',#348)
LENGTH_UNIT()
NAMED_UNIT(#344)
);
#346=(
LENGTH_UNIT()
NAMED_UNIT(*)
SI_UNIT(.MILLI.,.METRE.)
);
#347=(
LENGTH_UNIT()
NAMED_UNIT(*)
SI_UNIT(.CENTI.,.METRE.)
);
#348=LENGTH_MEASURE_WITH_UNIT(LENGTH_MEASURE(25.4),#346);
#349=(
NAMED_UNIT(*)
PLANE_ANGLE_UNIT()
SI_UNIT($,.RADIAN.)
);
#350=(
NAMED_UNIT(*)
SI_UNIT($,.STERADIAN.)
SOLID_ANGLE_UNIT()
);
#351=SHAPE_DEFINITION_REPRESENTATION(#352,#353);
#352=PRODUCT_DEFINITION_SHAPE('',$,#355);
#353=SHAPE_REPRESENTATION('',(#142),#342);
#354=PRODUCT_DEFINITION_CONTEXT('part definition',#359,'design');
#355=PRODUCT_DEFINITION('7ERWWW-25X15','7ERWWW-25X15',#356,#354);
#356=PRODUCT_DEFINITION_FORMATION('',$,#361);
#357=PRODUCT_RELATED_PRODUCT_CATEGORY('7ERWWW-25X15','7ERWWW-25X15',(#361));
#358=APPLICATION_PROTOCOL_DEFINITION('international standard',
'automotive_design',2009,#359);
#359=APPLICATION_CONTEXT(
'Core Data for Automotive Mechanical Design Process');
#360=PRODUCT_CONTEXT('part definition',#359,'mechanical');
#361=PRODUCT('7ERWWW-25X15','7ERWWW-25X15',$,(#360));
#362=PRESENTATION_STYLE_ASSIGNMENT((#363));
#363=SURFACE_STYLE_USAGE(.BOTH.,#366);
#364=SURFACE_STYLE_RENDERING_WITH_PROPERTIES($,#370,(#365));
#365=SURFACE_STYLE_TRANSPARENT(0.);
#366=SURFACE_SIDE_STYLE('',(#367,#364));
#367=SURFACE_STYLE_FILL_AREA(#368);
#368=FILL_AREA_STYLE('',(#369));
#369=FILL_AREA_STYLE_COLOUR('',#370);
#370=COLOUR_RGB('',0.749019607843137,0.749019607843137,0.749019607843137);
ENDSEC;
END-ISO-10303-21;
