ISO-10303-21;
HEADER;
/* Generated by software containing ST-Developer
 * from STEP Tools, Inc. (www.steptools.com) 
 */

FILE_DESCRIPTION(
/* description */ (''),
/* implementation_level */ '2;1');

FILE_NAME(
/* name */ 
'W:\\AUTOCAD\\AutoCad - Projects\\Numbered\\7ERWWW\\7ERWWW\\7ERWWW-2.5
X2.stp',
/* time_stamp */ '2021-09-01T15:03:12-04:00',
/* author */ ('rick'),
/* organization */ (''),
/* preprocessor_version */ 'ST-DEVELOPER v18',
/* originating_system */ 'Autodesk Inventor 2020',
/* authorisation */ '');

FILE_SCHEMA (('AUTOMOTIVE_DESIGN { 1 0 10303 214 3 1 1 }'));
ENDSEC;

DATA;
#10=MECHANICAL_DESIGN_GEOMETRIC_PRESENTATION_REPRESENTATION('',(#13),#355);
#11=SHAPE_REPRESENTATION_RELATIONSHIP('SRR','None',#365,#12);
#12=ADVANCED_BREP_SHAPE_REPRESENTATION('',(#14),#354);
#13=STYLED_ITEM('',(#374),#14);
#14=MANIFOLD_SOLID_BREP('Solid1',#123);
#15=FACE_BOUND('',#33,.T.);
#16=FACE_BOUND('',#35,.T.);
#17=FACE_BOUND('',#37,.T.);
#18=FACE_BOUND('',#39,.T.);
#19=FACE_BOUND('',#41,.T.);
#20=PLANE('',#147);
#21=PLANE('',#154);
#22=PLANE('',#155);
#23=FACE_OUTER_BOUND('',#30,.T.);
#24=FACE_OUTER_BOUND('',#31,.T.);
#25=FACE_OUTER_BOUND('',#32,.T.);
#26=FACE_OUTER_BOUND('',#34,.T.);
#27=FACE_OUTER_BOUND('',#36,.T.);
#28=FACE_OUTER_BOUND('',#38,.T.);
#29=FACE_OUTER_BOUND('',#40,.T.);
#30=EDGE_LOOP('',(#84,#85,#86,#87,#88));
#31=EDGE_LOOP('',(#89,#90,#91,#92,#93));
#32=EDGE_LOOP('',(#94));
#33=EDGE_LOOP('',(#95));
#34=EDGE_LOOP('',(#96,#97,#98,#99));
#35=EDGE_LOOP('',(#100,#101));
#36=EDGE_LOOP('',(#102,#103,#104,#105));
#37=EDGE_LOOP('',(#106,#107));
#38=EDGE_LOOP('',(#108));
#39=EDGE_LOOP('',(#109));
#40=EDGE_LOOP('',(#110));
#41=EDGE_LOOP('',(#111));
#42=B_SPLINE_CURVE_WITH_KNOTS('',3,(#195,#196,#197,#198,#199,#200,#201,
#202,#203,#204,#205,#206,#207,#208,#209,#210,#211,#212),.UNSPECIFIED.,.F.,
 .F.,(4,2,2,2,2,2,2,2,4),(0.,0.687709336549557,1.37541867309911,2.06312800964867,
2.75083734619823,3.21671177614855,3.68258620609887,4.14846063604919,4.61433506599951),
 .UNSPECIFIED.);
#43=B_SPLINE_CURVE_WITH_KNOTS('',3,(#213,#214,#215,#216,#217,#218,#219,
#220,#221,#222,#223,#224,#225,#226,#227,#228,#229,#230,#231,#232,#233,#234,
#235,#236,#237,#238,#239,#240,#241,#242,#243,#244,#245,#246,#247,#248,#249,
#250,#251,#252,#253,#254,#255,#256,#257,#258,#259,#260,#261,#262),
 .UNSPECIFIED.,.F.,.F.,(4,2,2,2,2,2,2,2,2,2,2,2,2,2,2,2,2,2,2,2,2,2,2,2,
4),(4.61433506599951,5.06275789139147,5.51118071678343,5.95960354217538,
6.40802636756734,6.87551122732057,7.34299608707379,7.81048094682701,8.27796580658024,
8.74545066633346,9.21293552608669,9.68042038583991,10.1479052455931,10.5963280709851,
11.044750896377,11.493173721769,11.941596547161,12.4074709771113,12.8733454070616,
13.3392198370119,13.8050942669622,14.4928036035118,15.1805129400614,15.8682222766109,
16.5559316131605),.UNSPECIFIED.);
#44=B_SPLINE_CURVE_WITH_KNOTS('',3,(#266,#267,#268,#269,#270,#271,#272,
#273,#274,#275,#276,#277,#278,#279,#280,#281,#282,#283,#284,#285,#286,#287,
#288,#289,#290,#291,#292,#293,#294,#295,#296,#297,#298,#299,#300,#301,#302,
#303,#304,#305,#306,#307,#308,#309,#310,#311,#312,#313,#314,#315),
 .UNSPECIFIED.,.F.,.F.,(4,2,2,2,2,2,2,2,2,2,2,2,2,2,2,2,2,2,2,2,2,2,2,2,
4),(0.,0.732719650839703,1.46543930167941,2.19815895251911,2.93087860335881,
3.42735137471461,3.92382414607041,4.42029691742621,4.91676968878201,5.3970595641509,
5.87734943951979,6.35763931488868,6.83792919025757,7.3394080456272,7.84088690099684,
8.34236575636648,8.84384461173611,9.34532346710575,9.84680232247539,10.348281177845,
10.8497600332147,11.3300499085836,11.8103397839524,12.2906296593213,12.7709195346902),
 .UNSPECIFIED.);
#45=B_SPLINE_CURVE_WITH_KNOTS('',3,(#316,#317,#318,#319,#320,#321,#322,
#323,#324,#325,#326,#327,#328,#329,#330,#331,#332,#333),.UNSPECIFIED.,.F.,
 .F.,(4,2,2,2,2,2,2,2,4),(12.7709195346902,13.267392306046,13.7638650774018,
14.2603378487576,14.7568106201134,15.4895302709531,16.2222499217928,16.9549695726325,
17.6876892234722),.UNSPECIFIED.);
#46=LINE('',#193,#50);
#47=LINE('',#335,#51);
#48=LINE('',#342,#52);
#49=LINE('',#348,#53);
#50=VECTOR('',#162,0.935);
#51=VECTOR('',#165,1.);
#52=VECTOR('',#174,1.185);
#53=VECTOR('',#181,1.25);
#54=CIRCLE('',#144,0.935);
#55=CIRCLE('',#146,1.);
#56=CIRCLE('',#149,1.185);
#57=CIRCLE('',#150,1.185);
#58=CIRCLE('',#152,1.25);
#59=CIRCLE('',#153,1.25);
#60=VERTEX_POINT('',#190);
#61=VERTEX_POINT('',#192);
#62=VERTEX_POINT('',#194);
#63=VERTEX_POINT('',#264);
#64=VERTEX_POINT('',#265);
#65=VERTEX_POINT('',#334);
#66=VERTEX_POINT('',#339);
#67=VERTEX_POINT('',#341);
#68=VERTEX_POINT('',#345);
#69=VERTEX_POINT('',#347);
#70=EDGE_CURVE('',#60,#60,#54,.T.);
#71=EDGE_CURVE('',#60,#61,#46,.T.);
#72=EDGE_CURVE('',#62,#61,#42,.T.);
#73=EDGE_CURVE('',#61,#62,#43,.T.);
#74=EDGE_CURVE('',#63,#64,#44,.T.);
#75=EDGE_CURVE('',#64,#63,#45,.T.);
#76=EDGE_CURVE('',#64,#65,#47,.T.);
#77=EDGE_CURVE('',#65,#65,#55,.T.);
#78=EDGE_CURVE('',#66,#66,#56,.T.);
#79=EDGE_CURVE('',#66,#67,#48,.T.);
#80=EDGE_CURVE('',#67,#67,#57,.T.);
#81=EDGE_CURVE('',#68,#68,#58,.T.);
#82=EDGE_CURVE('',#68,#69,#49,.T.);
#83=EDGE_CURVE('',#69,#69,#59,.T.);
#84=ORIENTED_EDGE('',*,*,#70,.F.);
#85=ORIENTED_EDGE('',*,*,#71,.T.);
#86=ORIENTED_EDGE('',*,*,#72,.F.);
#87=ORIENTED_EDGE('',*,*,#73,.F.);
#88=ORIENTED_EDGE('',*,*,#71,.F.);
#89=ORIENTED_EDGE('',*,*,#74,.F.);
#90=ORIENTED_EDGE('',*,*,#75,.F.);
#91=ORIENTED_EDGE('',*,*,#76,.T.);
#92=ORIENTED_EDGE('',*,*,#77,.T.);
#93=ORIENTED_EDGE('',*,*,#76,.F.);
#94=ORIENTED_EDGE('',*,*,#77,.F.);
#95=ORIENTED_EDGE('',*,*,#70,.T.);
#96=ORIENTED_EDGE('',*,*,#78,.F.);
#97=ORIENTED_EDGE('',*,*,#79,.T.);
#98=ORIENTED_EDGE('',*,*,#80,.F.);
#99=ORIENTED_EDGE('',*,*,#79,.F.);
#100=ORIENTED_EDGE('',*,*,#72,.T.);
#101=ORIENTED_EDGE('',*,*,#73,.T.);
#102=ORIENTED_EDGE('',*,*,#81,.F.);
#103=ORIENTED_EDGE('',*,*,#82,.T.);
#104=ORIENTED_EDGE('',*,*,#83,.T.);
#105=ORIENTED_EDGE('',*,*,#82,.F.);
#106=ORIENTED_EDGE('',*,*,#74,.T.);
#107=ORIENTED_EDGE('',*,*,#75,.T.);
#108=ORIENTED_EDGE('',*,*,#83,.F.);
#109=ORIENTED_EDGE('',*,*,#78,.T.);
#110=ORIENTED_EDGE('',*,*,#81,.T.);
#111=ORIENTED_EDGE('',*,*,#80,.T.);
#112=CYLINDRICAL_SURFACE('',#143,0.935);
#113=CYLINDRICAL_SURFACE('',#145,1.);
#114=CYLINDRICAL_SURFACE('',#148,1.185);
#115=CYLINDRICAL_SURFACE('',#151,1.25);
#116=ADVANCED_FACE('',(#23),#112,.F.);
#117=ADVANCED_FACE('',(#24),#113,.T.);
#118=ADVANCED_FACE('',(#25,#15),#20,.T.);
#119=ADVANCED_FACE('',(#26,#16),#114,.F.);
#120=ADVANCED_FACE('',(#27,#17),#115,.T.);
#121=ADVANCED_FACE('',(#28,#18),#21,.T.);
#122=ADVANCED_FACE('',(#29,#19),#22,.F.);
#123=CLOSED_SHELL('',(#116,#117,#118,#119,#120,#121,#122));
#124=DERIVED_UNIT_ELEMENT(#126,1.);
#125=DERIVED_UNIT_ELEMENT(#359,3.);
#126=(
MASS_UNIT()
NAMED_UNIT(*)
SI_UNIT($,.GRAM.)
);
#127=DERIVED_UNIT((#124,#125));
#128=MEASURE_REPRESENTATION_ITEM('density measure',
POSITIVE_RATIO_MEASURE(1.),#127);
#129=PROPERTY_DEFINITION_REPRESENTATION(#134,#131);
#130=PROPERTY_DEFINITION_REPRESENTATION(#135,#132);
#131=REPRESENTATION('material name',(#133),#354);
#132=REPRESENTATION('density',(#128),#354);
#133=DESCRIPTIVE_REPRESENTATION_ITEM('Generic','Generic');
#134=PROPERTY_DEFINITION('material property','material name',#367);
#135=PROPERTY_DEFINITION('material property','density of part',#367);
#136=DATE_TIME_ROLE('creation_date');
#137=APPLIED_DATE_AND_TIME_ASSIGNMENT(#138,#136,(#367));
#138=DATE_AND_TIME(#139,#140);
#139=CALENDAR_DATE(2012,29,6);
#140=LOCAL_TIME(12,39,31.,#141);
#141=COORDINATED_UNIVERSAL_TIME_OFFSET(0,0,.BEHIND.);
#142=AXIS2_PLACEMENT_3D('placement',#188,#156,#157);
#143=AXIS2_PLACEMENT_3D('',#189,#158,#159);
#144=AXIS2_PLACEMENT_3D('',#191,#160,#161);
#145=AXIS2_PLACEMENT_3D('',#263,#163,#164);
#146=AXIS2_PLACEMENT_3D('',#336,#166,#167);
#147=AXIS2_PLACEMENT_3D('',#337,#168,#169);
#148=AXIS2_PLACEMENT_3D('',#338,#170,#171);
#149=AXIS2_PLACEMENT_3D('',#340,#172,#173);
#150=AXIS2_PLACEMENT_3D('',#343,#175,#176);
#151=AXIS2_PLACEMENT_3D('',#344,#177,#178);
#152=AXIS2_PLACEMENT_3D('',#346,#179,#180);
#153=AXIS2_PLACEMENT_3D('',#349,#182,#183);
#154=AXIS2_PLACEMENT_3D('',#350,#184,#185);
#155=AXIS2_PLACEMENT_3D('',#351,#186,#187);
#156=DIRECTION('axis',(0.,0.,1.));
#157=DIRECTION('refdir',(1.,0.,0.));
#158=DIRECTION('center_axis',(0.,0.,-1.));
#159=DIRECTION('ref_axis',(-1.,0.,0.));
#160=DIRECTION('center_axis',(0.,0.,-1.));
#161=DIRECTION('ref_axis',(-1.,0.,0.));
#162=DIRECTION('',(0.,0.,-1.));
#163=DIRECTION('center_axis',(0.,0.,-1.));
#164=DIRECTION('ref_axis',(-1.,0.,0.));
#165=DIRECTION('',(0.,0.,1.));
#166=DIRECTION('center_axis',(0.,0.,-1.));
#167=DIRECTION('ref_axis',(-1.,0.,0.));
#168=DIRECTION('center_axis',(0.,0.,1.));
#169=DIRECTION('ref_axis',(1.,0.,0.));
#170=DIRECTION('center_axis',(-1.,0.,0.));
#171=DIRECTION('ref_axis',(0.,-1.,0.));
#172=DIRECTION('center_axis',(-1.,0.,0.));
#173=DIRECTION('ref_axis',(0.,-1.,0.));
#174=DIRECTION('',(-1.,0.,0.));
#175=DIRECTION('center_axis',(1.,0.,0.));
#176=DIRECTION('ref_axis',(0.,-1.,0.));
#177=DIRECTION('center_axis',(-1.,0.,0.));
#178=DIRECTION('ref_axis',(0.,-1.,0.));
#179=DIRECTION('center_axis',(-1.,0.,0.));
#180=DIRECTION('ref_axis',(0.,-1.,0.));
#181=DIRECTION('',(1.,0.,0.));
#182=DIRECTION('center_axis',(-1.,0.,0.));
#183=DIRECTION('ref_axis',(0.,-1.,0.));
#184=DIRECTION('center_axis',(1.,0.,0.));
#185=DIRECTION('ref_axis',(0.,0.,-1.));
#186=DIRECTION('center_axis',(1.,0.,0.));
#187=DIRECTION('ref_axis',(0.,0.,-1.));
#188=CARTESIAN_POINT('',(0.,0.,0.));
#189=CARTESIAN_POINT('Origin',(0.,-0.25,2.312));
#190=CARTESIAN_POINT('',(0.935,-0.25,2.312));
#191=CARTESIAN_POINT('Origin',(0.,-0.25,2.312));
#192=CARTESIAN_POINT('',(0.935,-0.25,1.15832853716033));
#193=CARTESIAN_POINT('',(0.935,-0.25,2.312));
#194=CARTESIAN_POINT('',(0.,-1.185,3.49676543189026E-16));
#195=CARTESIAN_POINT('Ctrl Pts',(0.,-1.185,0.));
#196=CARTESIAN_POINT('Ctrl Pts',(0.0599360094441707,-1.185,0.0674747359754832));
#197=CARTESIAN_POINT('Ctrl Pts',(0.122458054219308,-1.17916398915408,0.137853881253388));
#198=CARTESIAN_POINT('Ctrl Pts',(0.248234451236377,-1.15372636937777,0.27990511035442));
#199=CARTESIAN_POINT('Ctrl Pts',(0.311488271601454,-1.13413189280637,0.35157894223872));
#200=CARTESIAN_POINT('Ctrl Pts',(0.434369779226137,-1.08068464782294,0.491918355537085));
#201=CARTESIAN_POINT('Ctrl Pts',(0.494034667355345,-1.04681751112395,0.560627720224359));
#202=CARTESIAN_POINT('Ctrl Pts',(0.605677426353575,-0.96564184732187,0.691133970595358));
#203=CARTESIAN_POINT('Ctrl Pts',(0.657652269757866,-0.918327525817612,0.752929841915499));
#204=CARTESIAN_POINT('Ctrl Pts',(0.735275274109846,-0.829537533278077,0.847848856401132));
#205=CARTESIAN_POINT('Ctrl Pts',(0.766021415789397,-0.788765100922465,0.886252643782035));
#206=CARTESIAN_POINT('Ctrl Pts',(0.822202046586482,-0.698375331619315,0.959096465167122));
#207=CARTESIAN_POINT('Ctrl Pts',(0.847629595043498,-0.648750055515027,0.993532000221146));
#208=CARTESIAN_POINT('Ctrl Pts',(0.889809632640261,-0.542773573947966,1.05516793886988));
#209=CARTESIAN_POINT('Ctrl Pts',(0.906583773612869,-0.486329885938566,1.08240969706382));
#210=CARTESIAN_POINT('Ctrl Pts',(0.929186447918334,-0.36982695274248,1.12754402814847));
#211=CARTESIAN_POINT('Ctrl Pts',(0.935,-0.309762300734771,1.14543014546542));
#212=CARTESIAN_POINT('Ctrl Pts',(0.935,-0.25,1.15832853716033));
#213=CARTESIAN_POINT('Ctrl Pts',(0.935,-0.25,1.15832853716033));
#214=CARTESIAN_POINT('Ctrl Pts',(0.935,-0.192476388433107,1.17074375653063));
#215=CARTESIAN_POINT('Ctrl Pts',(0.929592312827405,-0.132620723880748,1.17907275013864));
#216=CARTESIAN_POINT('Ctrl Pts',(0.906570379251214,-0.0132513780109545,
1.18643381926456));
#217=CARTESIAN_POINT('Ctrl Pts',(0.888955950712066,0.0462615364837283,1.18547775538209));
#218=CARTESIAN_POINT('Ctrl Pts',(0.842446684571366,0.160240349241717,1.17550868489914));
#219=CARTESIAN_POINT('Ctrl Pts',(0.813497149150828,0.214861208232865,1.16650511703871));
#220=CARTESIAN_POINT('Ctrl Pts',(0.746922459627869,0.315668094862848,1.14335173102716));
#221=CARTESIAN_POINT('Ctrl Pts',(0.709294757891352,0.361859299610025,1.12923178874765));
#222=CARTESIAN_POINT('Ctrl Pts',(0.628067633341806,0.445186108875679,1.09912660000079));
#223=CARTESIAN_POINT('Ctrl Pts',(0.581303531706231,0.4849438750785,1.08193392409718));
#224=CARTESIAN_POINT('Ctrl Pts',(0.479347933000177,0.555159520936245,1.04763995947638));
#225=CARTESIAN_POINT('Ctrl Pts',(0.424154636358306,0.585632960600518,1.03057589130744));
#226=CARTESIAN_POINT('Ctrl Pts',(0.30828823539819,0.634956310439642,1.00094123425139));
#227=CARTESIAN_POINT('Ctrl Pts',(0.247497454393366,0.653845933264718,0.988402513054538));
#228=CARTESIAN_POINT('Ctrl Pts',(0.12403328847775,0.67887469659179,0.97138209826245));
#229=CARTESIAN_POINT('Ctrl Pts',(0.0613497191277197,0.685,0.966953980290686));
#230=CARTESIAN_POINT('Ctrl Pts',(-0.0613497191277197,0.685,0.966953980290686));
#231=CARTESIAN_POINT('Ctrl Pts',(-0.12403328847775,0.67887469659179,0.97138209826245));
#232=CARTESIAN_POINT('Ctrl Pts',(-0.247497454393366,0.653845933264718,0.988402513054538));
#233=CARTESIAN_POINT('Ctrl Pts',(-0.30828823539819,0.634956310439642,1.00094123425139));
#234=CARTESIAN_POINT('Ctrl Pts',(-0.424154636358307,0.585632960600518,1.03057589130744));
#235=CARTESIAN_POINT('Ctrl Pts',(-0.479347933000177,0.555159520936245,1.04763995947638));
#236=CARTESIAN_POINT('Ctrl Pts',(-0.581303531706231,0.4849438750785,1.08193392409718));
#237=CARTESIAN_POINT('Ctrl Pts',(-0.628067633341806,0.445186108875679,1.09912660000079));
#238=CARTESIAN_POINT('Ctrl Pts',(-0.709294757891351,0.361859299610026,1.12923178874765));
#239=CARTESIAN_POINT('Ctrl Pts',(-0.746922459627869,0.315668094862849,1.14335173102716));
#240=CARTESIAN_POINT('Ctrl Pts',(-0.813497149150828,0.214861208232866,1.16650511703871));
#241=CARTESIAN_POINT('Ctrl Pts',(-0.842446684571366,0.160240349241718,1.17550868489914));
#242=CARTESIAN_POINT('Ctrl Pts',(-0.888955950712066,0.046261536483729,1.18547775538209));
#243=CARTESIAN_POINT('Ctrl Pts',(-0.906570379251213,-0.0132513780109539,
1.18643381926456));
#244=CARTESIAN_POINT('Ctrl Pts',(-0.929592312827404,-0.132620723880747,
1.17907275013864));
#245=CARTESIAN_POINT('Ctrl Pts',(-0.935,-0.192476388433107,1.17074375653063));
#246=CARTESIAN_POINT('Ctrl Pts',(-0.935,-0.309762300734771,1.14543014546542));
#247=CARTESIAN_POINT('Ctrl Pts',(-0.929186447918334,-0.369826952742481,
1.12754402814847));
#248=CARTESIAN_POINT('Ctrl Pts',(-0.906583773612869,-0.486329885938566,
1.08240969706382));
#249=CARTESIAN_POINT('Ctrl Pts',(-0.889809632640261,-0.542773573947967,
1.05516793886988));
#250=CARTESIAN_POINT('Ctrl Pts',(-0.847629595043498,-0.648750055515028,
0.993532000221145));
#251=CARTESIAN_POINT('Ctrl Pts',(-0.822202046586482,-0.698375331619316,
0.959096465167122));
#252=CARTESIAN_POINT('Ctrl Pts',(-0.766021415789397,-0.788765100922465,
0.886252643782034));
#253=CARTESIAN_POINT('Ctrl Pts',(-0.735275274109846,-0.829537533278077,
0.847848856401132));
#254=CARTESIAN_POINT('Ctrl Pts',(-0.657652269757866,-0.918327525817612,
0.752929841915499));
#255=CARTESIAN_POINT('Ctrl Pts',(-0.605677426353575,-0.96564184732187,0.691133970595358));
#256=CARTESIAN_POINT('Ctrl Pts',(-0.494034667355345,-1.04681751112395,0.560627720224358));
#257=CARTESIAN_POINT('Ctrl Pts',(-0.434369779226137,-1.08068464782294,0.491918355537084));
#258=CARTESIAN_POINT('Ctrl Pts',(-0.311488271601454,-1.13413189280637,0.35157894223872));
#259=CARTESIAN_POINT('Ctrl Pts',(-0.248234451236376,-1.15372636937777,0.27990511035442));
#260=CARTESIAN_POINT('Ctrl Pts',(-0.122458054219309,-1.17916398915408,0.137853881253387));
#261=CARTESIAN_POINT('Ctrl Pts',(-0.0599360094441706,-1.185,0.0674747359754831));
#262=CARTESIAN_POINT('Ctrl Pts',(0.,-1.185,0.));
#263=CARTESIAN_POINT('Origin',(0.,-0.25,2.312));
#264=CARTESIAN_POINT('',(0.,-1.25,0.));
#265=CARTESIAN_POINT('',(1.,-0.25,1.22474487139159));
#266=CARTESIAN_POINT('Ctrl Pts',(0.,-1.25,0.));
#267=CARTESIAN_POINT('Ctrl Pts',(-0.0641049563289329,-1.25,0.0716715200230747));
#268=CARTESIAN_POINT('Ctrl Pts',(-0.130972105436412,-1.24375791870631,0.146424325668859));
#269=CARTESIAN_POINT('Ctrl Pts',(-0.26548566530068,-1.21655359633975,0.297272923513247));
#270=CARTESIAN_POINT('Ctrl Pts',(-0.333131614582814,-1.19559914306621,0.373370531574683));
#271=CARTESIAN_POINT('Ctrl Pts',(-0.464549050399588,-1.13844162984845,0.522315613440504));
#272=CARTESIAN_POINT('Ctrl Pts',(-0.528360486027823,-1.10222342521723,0.595209594373506));
#273=CARTESIAN_POINT('Ctrl Pts',(-0.647775364052444,-1.01539966504699,0.733576486069774));
#274=CARTESIAN_POINT('Ctrl Pts',(-0.703375827180478,-0.96478828677121,0.799048314248039));
#275=CARTESIAN_POINT('Ctrl Pts',(-0.786438771442466,-0.869768136310682,
0.899512572529567));
#276=CARTESIAN_POINT('Ctrl Pts',(-0.819339636514752,-0.826129124154949,
0.940120988565632));
#277=CARTESIAN_POINT('Ctrl Pts',(-0.879441864635645,-0.729399848137713,
1.01700180174624));
#278=CARTESIAN_POINT('Ctrl Pts',(-0.906635816285519,-0.676301058902069,
1.05326926593468));
#279=CARTESIAN_POINT('Ctrl Pts',(-0.951730102148741,-0.56293916808913,1.11797085432082));
#280=CARTESIAN_POINT('Ctrl Pts',(-0.969654279925624,-0.502575423415009,
1.14644900109355));
#281=CARTESIAN_POINT('Ctrl Pts',(-0.993797128504971,-0.378027475591171,
1.19332417899505));
#282=CARTESIAN_POINT('Ctrl Pts',(-1.,-0.313837530761531,1.21171408999117));
#283=CARTESIAN_POINT('Ctrl Pts',(-1.,-0.188243300615291,1.23735090486584));
#284=CARTESIAN_POINT('Ctrl Pts',(-0.99417263248128,-0.124058635289571,1.24547440948717));
#285=CARTESIAN_POINT('Ctrl Pts',(-0.969443728044259,0.00380959141270715,
1.25163194937035));
#286=CARTESIAN_POINT('Ctrl Pts',(-0.950542845118848,0.0674926623033081,
1.24967878989827));
#287=CARTESIAN_POINT('Ctrl Pts',(-0.900721208303173,0.189356995493739,1.23709185760614));
#288=CARTESIAN_POINT('Ctrl Pts',(-0.869742513391156,0.247704130644303,1.22646533160189));
#289=CARTESIAN_POINT('Ctrl Pts',(-0.798586836246669,0.355326776056426,1.19971556139923));
#290=CARTESIAN_POINT('Ctrl Pts',(-0.758407228342058,0.404608316495098,1.18362357242742));
#291=CARTESIAN_POINT('Ctrl Pts',(-0.671679048096895,0.4935549181801,1.14946601705303));
#292=CARTESIAN_POINT('Ctrl Pts',(-0.621725688837069,0.536020894692198,1.13002811574127));
#293=CARTESIAN_POINT('Ctrl Pts',(-0.5128244840827,0.611035845413534,1.09129149993272));
#294=CARTESIAN_POINT('Ctrl Pts',(-0.453875050713642,0.643602538181672,1.07203157389208));
#295=CARTESIAN_POINT('Ctrl Pts',(-0.330065131893278,0.696353382513356,1.03854136505462));
#296=CARTESIAN_POINT('Ctrl Pts',(-0.265077531450623,0.716580498608261,1.02434638385663));
#297=CARTESIAN_POINT('Ctrl Pts',(-0.132956673262387,0.74341153501802,1.00504349040307));
#298=CARTESIAN_POINT('Ctrl Pts',(-0.0658108734080889,0.75,1.));
#299=CARTESIAN_POINT('Ctrl Pts',(0.0658108734080888,0.75,1.));
#300=CARTESIAN_POINT('Ctrl Pts',(0.132956673262387,0.74341153501802,1.00504349040307));
#301=CARTESIAN_POINT('Ctrl Pts',(0.265077531450623,0.716580498608261,1.02434638385663));
#302=CARTESIAN_POINT('Ctrl Pts',(0.330065131893278,0.696353382513356,1.03854136505462));
#303=CARTESIAN_POINT('Ctrl Pts',(0.453875050713642,0.643602538181672,1.07203157389208));
#304=CARTESIAN_POINT('Ctrl Pts',(0.5128244840827,0.611035845413534,1.09129149993272));
#305=CARTESIAN_POINT('Ctrl Pts',(0.621725688837069,0.536020894692198,1.13002811574127));
#306=CARTESIAN_POINT('Ctrl Pts',(0.671679048096895,0.4935549181801,1.14946601705303));
#307=CARTESIAN_POINT('Ctrl Pts',(0.758407228342058,0.404608316495098,1.18362357242742));
#308=CARTESIAN_POINT('Ctrl Pts',(0.798586836246669,0.355326776056426,1.19971556139923));
#309=CARTESIAN_POINT('Ctrl Pts',(0.869742513391156,0.247704130644303,1.22646533160189));
#310=CARTESIAN_POINT('Ctrl Pts',(0.900721208303173,0.189356995493739,1.23709185760614));
#311=CARTESIAN_POINT('Ctrl Pts',(0.950542845118848,0.0674926623033079,1.24967878989827));
#312=CARTESIAN_POINT('Ctrl Pts',(0.969443728044259,0.00380959141270684,
1.25163194937035));
#313=CARTESIAN_POINT('Ctrl Pts',(0.99417263248128,-0.124058635289572,1.24547440948717));
#314=CARTESIAN_POINT('Ctrl Pts',(1.,-0.188243300615291,1.23735090486584));
#315=CARTESIAN_POINT('Ctrl Pts',(1.,-0.25,1.22474487139159));
#316=CARTESIAN_POINT('Ctrl Pts',(1.,-0.25,1.22474487139159));
#317=CARTESIAN_POINT('Ctrl Pts',(1.,-0.313837530761531,1.21171408999117));
#318=CARTESIAN_POINT('Ctrl Pts',(0.993797128504971,-0.378027475591171,1.19332417899505));
#319=CARTESIAN_POINT('Ctrl Pts',(0.969654279925624,-0.502575423415009,1.14644900109355));
#320=CARTESIAN_POINT('Ctrl Pts',(0.951730102148742,-0.56293916808913,1.11797085432082));
#321=CARTESIAN_POINT('Ctrl Pts',(0.906635816285519,-0.676301058902069,1.05326926593468));
#322=CARTESIAN_POINT('Ctrl Pts',(0.879441864635645,-0.729399848137713,1.01700180174624));
#323=CARTESIAN_POINT('Ctrl Pts',(0.819339636514752,-0.826129124154949,0.940120988565632));
#324=CARTESIAN_POINT('Ctrl Pts',(0.786438771442467,-0.869768136310681,0.899512572529567));
#325=CARTESIAN_POINT('Ctrl Pts',(0.703375827180479,-0.964788286771209,0.79904831424804));
#326=CARTESIAN_POINT('Ctrl Pts',(0.647775364052445,-1.01539966504699,0.733576486069774));
#327=CARTESIAN_POINT('Ctrl Pts',(0.528360486027824,-1.10222342521723,0.595209594373506));
#328=CARTESIAN_POINT('Ctrl Pts',(0.464549050399589,-1.13844162984845,0.522315613440504));
#329=CARTESIAN_POINT('Ctrl Pts',(0.333131614582814,-1.19559914306621,0.373370531574683));
#330=CARTESIAN_POINT('Ctrl Pts',(0.265485665300681,-1.21655359633975,0.297272923513246));
#331=CARTESIAN_POINT('Ctrl Pts',(0.130972105436412,-1.24375791870631,0.146424325668859));
#332=CARTESIAN_POINT('Ctrl Pts',(0.0641049563289328,-1.25,0.0716715200230745));
#333=CARTESIAN_POINT('Ctrl Pts',(0.,-1.25,0.));
#334=CARTESIAN_POINT('',(1.,-0.25,2.312));
#335=CARTESIAN_POINT('',(1.,-0.25,2.312));
#336=CARTESIAN_POINT('Origin',(0.,-0.25,2.312));
#337=CARTESIAN_POINT('Origin',(-5.6094700122688E-17,-0.25,2.312));
#338=CARTESIAN_POINT('Origin',(2.344,0.,0.));
#339=CARTESIAN_POINT('',(2.344,1.185,1.45120645698961E-16));
#340=CARTESIAN_POINT('Origin',(2.344,0.,0.));
#341=CARTESIAN_POINT('',(-2.344,1.185,1.45120645698961E-16));
#342=CARTESIAN_POINT('',(2.344,1.185,-1.45120645698961E-16));
#343=CARTESIAN_POINT('Origin',(-2.344,0.,0.));
#344=CARTESIAN_POINT('Origin',(2.344,0.,0.));
#345=CARTESIAN_POINT('',(-2.344,1.25,-1.53080849893419E-16));
#346=CARTESIAN_POINT('Origin',(-2.344,0.,0.));
#347=CARTESIAN_POINT('',(2.344,1.25,1.53080849893419E-16));
#348=CARTESIAN_POINT('',(2.344,1.25,-1.53080849893419E-16));
#349=CARTESIAN_POINT('Origin',(2.344,0.,0.));
#350=CARTESIAN_POINT('Origin',(2.344,-4.9468185594953E-17,1.83557240519174E-17));
#351=CARTESIAN_POINT('Origin',(-2.344,0.,0.));
#352=UNCERTAINTY_MEASURE_WITH_UNIT(LENGTH_MEASURE(0.000393700787401575),
#357,'DISTANCE_ACCURACY_VALUE',
'Maximum model space distance between geometric entities at asserted c
onnectivities');
#353=UNCERTAINTY_MEASURE_WITH_UNIT(LENGTH_MEASURE(0.000393700787401575),
#357,'DISTANCE_ACCURACY_VALUE',
'Maximum model space distance between geometric entities at asserted c
onnectivities');
#354=(
GEOMETRIC_REPRESENTATION_CONTEXT(3)
GLOBAL_UNCERTAINTY_ASSIGNED_CONTEXT((#352))
GLOBAL_UNIT_ASSIGNED_CONTEXT((#357,#361,#362))
REPRESENTATION_CONTEXT('','3D')
);
#355=(
GEOMETRIC_REPRESENTATION_CONTEXT(3)
GLOBAL_UNCERTAINTY_ASSIGNED_CONTEXT((#353))
GLOBAL_UNIT_ASSIGNED_CONTEXT((#357,#361,#362))
REPRESENTATION_CONTEXT('','3D')
);
#356=DIMENSIONAL_EXPONENTS(1.,0.,0.,0.,0.,0.,0.);
#357=(
CONVERSION_BASED_UNIT('inch',#360)
LENGTH_UNIT()
NAMED_UNIT(#356)
);
#358=(
LENGTH_UNIT()
NAMED_UNIT(*)
SI_UNIT(.MILLI.,.METRE.)
);
#359=(
LENGTH_UNIT()
NAMED_UNIT(*)
SI_UNIT(.CENTI.,.METRE.)
);
#360=LENGTH_MEASURE_WITH_UNIT(LENGTH_MEASURE(25.4),#358);
#361=(
NAMED_UNIT(*)
PLANE_ANGLE_UNIT()
SI_UNIT($,.RADIAN.)
);
#362=(
NAMED_UNIT(*)
SI_UNIT($,.STERADIAN.)
SOLID_ANGLE_UNIT()
);
#363=SHAPE_DEFINITION_REPRESENTATION(#364,#365);
#364=PRODUCT_DEFINITION_SHAPE('',$,#367);
#365=SHAPE_REPRESENTATION('',(#142),#354);
#366=PRODUCT_DEFINITION_CONTEXT('part definition',#371,'design');
#367=PRODUCT_DEFINITION('7ERWWW-2.5X2','7ERWWW-2.5X2',#368,#366);
#368=PRODUCT_DEFINITION_FORMATION('',$,#373);
#369=PRODUCT_RELATED_PRODUCT_CATEGORY('7ERWWW-2.5X2','7ERWWW-2.5X2',(#373));
#370=APPLICATION_PROTOCOL_DEFINITION('international standard',
'automotive_design',2009,#371);
#371=APPLICATION_CONTEXT(
'Core Data for Automotive Mechanical Design Process');
#372=PRODUCT_CONTEXT('part definition',#371,'mechanical');
#373=PRODUCT('7ERWWW-2.5X2','7ERWWW-2.5X2',$,(#372));
#374=PRESENTATION_STYLE_ASSIGNMENT((#375));
#375=SURFACE_STYLE_USAGE(.BOTH.,#378);
#376=SURFACE_STYLE_RENDERING_WITH_PROPERTIES($,#382,(#377));
#377=SURFACE_STYLE_TRANSPARENT(0.);
#378=SURFACE_SIDE_STYLE('',(#379,#376));
#379=SURFACE_STYLE_FILL_AREA(#380);
#380=FILL_AREA_STYLE('',(#381));
#381=FILL_AREA_STYLE_COLOUR('',#382);
#382=COLOUR_RGB('',0.749019607843137,0.749019607843137,0.749019607843137);
ENDSEC;
END-ISO-10303-21;
