ISO-10303-21;
HEADER;
/* Generated by software containing ST-Developer
 * from STEP Tools, Inc. (www.steptools.com) 
 */

FILE_DESCRIPTION(
/* description */ (''),
/* implementation_level */ '2;1');

FILE_NAME(
/* name */ 
'W:\\AUTOCAD\\AutoCad - Projects\\Numbered\\7ERWWW\\7ERWWW\\7ERWWW-2X1
5.stp',
/* time_stamp */ '2021-09-01T15:02:22-04:00',
/* author */ ('rick'),
/* organization */ (''),
/* preprocessor_version */ 'ST-DEVELOPER v18',
/* originating_system */ 'Autodesk Inventor 2020',
/* authorisation */ '');

FILE_SCHEMA (('AUTOMOTIVE_DESIGN { 1 0 10303 214 3 1 1 }'));
ENDSEC;

DATA;
#10=MECHANICAL_DESIGN_GEOMETRIC_PRESENTATION_REPRESENTATION('',(#13),#335);
#11=SHAPE_REPRESENTATION_RELATIONSHIP('SRR','None',#345,#12);
#12=ADVANCED_BREP_SHAPE_REPRESENTATION('',(#14),#334);
#13=STYLED_ITEM('',(#354),#14);
#14=MANIFOLD_SOLID_BREP('Solid1',#123);
#15=FACE_BOUND('',#33,.T.);
#16=FACE_BOUND('',#35,.T.);
#17=FACE_BOUND('',#37,.T.);
#18=FACE_BOUND('',#39,.T.);
#19=FACE_BOUND('',#41,.T.);
#20=PLANE('',#147);
#21=PLANE('',#154);
#22=PLANE('',#155);
#23=FACE_OUTER_BOUND('',#30,.T.);
#24=FACE_OUTER_BOUND('',#31,.T.);
#25=FACE_OUTER_BOUND('',#32,.T.);
#26=FACE_OUTER_BOUND('',#34,.T.);
#27=FACE_OUTER_BOUND('',#36,.T.);
#28=FACE_OUTER_BOUND('',#38,.T.);
#29=FACE_OUTER_BOUND('',#40,.T.);
#30=EDGE_LOOP('',(#84,#85,#86,#87,#88));
#31=EDGE_LOOP('',(#89,#90,#91,#92,#93));
#32=EDGE_LOOP('',(#94));
#33=EDGE_LOOP('',(#95));
#34=EDGE_LOOP('',(#96,#97,#98,#99));
#35=EDGE_LOOP('',(#100,#101));
#36=EDGE_LOOP('',(#102,#103,#104,#105));
#37=EDGE_LOOP('',(#106,#107));
#38=EDGE_LOOP('',(#108));
#39=EDGE_LOOP('',(#109));
#40=EDGE_LOOP('',(#110));
#41=EDGE_LOOP('',(#111));
#42=B_SPLINE_CURVE_WITH_KNOTS('',3,(#195,#196,#197,#198,#199,#200,#201,
#202,#203,#204,#205,#206),.UNSPECIFIED.,.F.,.F.,(4,2,2,2,2,4),(0.,1.02891189760089,
2.05782379520178,2.75441639257909,3.10271269126775,3.45100898995641),
 .UNSPECIFIED.);
#43=B_SPLINE_CURVE_WITH_KNOTS('',3,(#207,#208,#209,#210,#211,#212,#213,
#214,#215,#216,#217,#218,#219,#220,#221,#222,#223,#224,#225,#226,#227,#228,
#229,#230,#231,#232,#233,#234,#235,#236,#237,#238,#239,#240,#241,#242,#243,
#244,#245,#246,#247,#248,#249,#250),.UNSPECIFIED.,.F.,.F.,(4,2,2,2,2,2,
2,2,2,2,2,2,2,2,2,2,2,2,2,2,2,4),(3.45100898995641,3.77849287590531,4.10597676185421,
4.43346064780311,4.76094453375201,5.09920481012822,5.43746508650443,5.77572536288064,
6.11398563925685,6.45224591563306,6.79050619200928,7.12876646838549,7.4670267447617,
7.7945106307106,8.12199451665949,8.44947840260839,8.77696228855729,9.12525858724595,
9.47355488593461,10.1701474833119,11.1990593809128,12.2279712785137),
 .UNSPECIFIED.);
#44=B_SPLINE_CURVE_WITH_KNOTS('',3,(#254,#255,#256,#257,#258,#259,#260,
#261,#262,#263,#264,#265,#266,#267,#268,#269,#270,#271,#272,#273,#274,#275,
#276,#277,#278,#279,#280,#281,#282,#283,#284,#285,#286,#287,#288,#289,#290,
#291,#292,#293,#294,#295,#296,#297,#298,#299),.UNSPECIFIED.,.F.,.F.,(4,
2,2,2,2,2,2,2,2,2,2,2,2,2,2,2,2,2,2,2,2,2,4),(0.,0.559529132752381,1.11905826550476,
2.23811653100952,2.99581336359809,3.37466177989237,3.75351019618665,4.11215370198358,
4.4707972077805,4.82944071357743,5.18808421937436,5.55970256459794,5.93132090982153,
6.30293925504512,6.67455760026871,7.0461759454923,7.41779429071588,7.78941263593947,
8.16103098116306,8.51967448695999,8.87831799275691,9.23696149855384,9.59560500435076),
 .UNSPECIFIED.);
#45=B_SPLINE_CURVE_WITH_KNOTS('',3,(#300,#301,#302,#303,#304,#305,#306,
#307,#308,#309,#310,#311,#312,#313),.UNSPECIFIED.,.F.,.F.,(4,2,2,2,2,2,
4),(9.59560500435076,9.97445342064504,10.3533018369393,11.1109986695279,
12.2300569350326,12.789586067785,13.3491152005374),.UNSPECIFIED.);
#46=LINE('',#193,#50);
#47=LINE('',#315,#51);
#48=LINE('',#322,#52);
#49=LINE('',#328,#53);
#50=VECTOR('',#162,0.685);
#51=VECTOR('',#165,0.75);
#52=VECTOR('',#174,0.935);
#53=VECTOR('',#181,1.);
#54=CIRCLE('',#144,0.685);
#55=CIRCLE('',#146,0.75);
#56=CIRCLE('',#149,0.935);
#57=CIRCLE('',#150,0.935);
#58=CIRCLE('',#152,1.);
#59=CIRCLE('',#153,1.);
#60=VERTEX_POINT('',#190);
#61=VERTEX_POINT('',#192);
#62=VERTEX_POINT('',#194);
#63=VERTEX_POINT('',#252);
#64=VERTEX_POINT('',#253);
#65=VERTEX_POINT('',#314);
#66=VERTEX_POINT('',#319);
#67=VERTEX_POINT('',#321);
#68=VERTEX_POINT('',#325);
#69=VERTEX_POINT('',#327);
#70=EDGE_CURVE('',#60,#60,#54,.T.);
#71=EDGE_CURVE('',#60,#61,#46,.T.);
#72=EDGE_CURVE('',#62,#61,#42,.T.);
#73=EDGE_CURVE('',#61,#62,#43,.T.);
#74=EDGE_CURVE('',#63,#64,#44,.T.);
#75=EDGE_CURVE('',#64,#63,#45,.T.);
#76=EDGE_CURVE('',#64,#65,#47,.T.);
#77=EDGE_CURVE('',#65,#65,#55,.T.);
#78=EDGE_CURVE('',#66,#66,#56,.T.);
#79=EDGE_CURVE('',#66,#67,#48,.T.);
#80=EDGE_CURVE('',#67,#67,#57,.T.);
#81=EDGE_CURVE('',#68,#68,#58,.T.);
#82=EDGE_CURVE('',#68,#69,#49,.T.);
#83=EDGE_CURVE('',#69,#69,#59,.T.);
#84=ORIENTED_EDGE('',*,*,#70,.F.);
#85=ORIENTED_EDGE('',*,*,#71,.T.);
#86=ORIENTED_EDGE('',*,*,#72,.F.);
#87=ORIENTED_EDGE('',*,*,#73,.F.);
#88=ORIENTED_EDGE('',*,*,#71,.F.);
#89=ORIENTED_EDGE('',*,*,#74,.F.);
#90=ORIENTED_EDGE('',*,*,#75,.F.);
#91=ORIENTED_EDGE('',*,*,#76,.T.);
#92=ORIENTED_EDGE('',*,*,#77,.T.);
#93=ORIENTED_EDGE('',*,*,#76,.F.);
#94=ORIENTED_EDGE('',*,*,#77,.F.);
#95=ORIENTED_EDGE('',*,*,#70,.T.);
#96=ORIENTED_EDGE('',*,*,#78,.F.);
#97=ORIENTED_EDGE('',*,*,#79,.T.);
#98=ORIENTED_EDGE('',*,*,#80,.F.);
#99=ORIENTED_EDGE('',*,*,#79,.F.);
#100=ORIENTED_EDGE('',*,*,#72,.T.);
#101=ORIENTED_EDGE('',*,*,#73,.T.);
#102=ORIENTED_EDGE('',*,*,#81,.F.);
#103=ORIENTED_EDGE('',*,*,#82,.T.);
#104=ORIENTED_EDGE('',*,*,#83,.T.);
#105=ORIENTED_EDGE('',*,*,#82,.F.);
#106=ORIENTED_EDGE('',*,*,#74,.T.);
#107=ORIENTED_EDGE('',*,*,#75,.T.);
#108=ORIENTED_EDGE('',*,*,#83,.F.);
#109=ORIENTED_EDGE('',*,*,#78,.T.);
#110=ORIENTED_EDGE('',*,*,#81,.T.);
#111=ORIENTED_EDGE('',*,*,#80,.T.);
#112=CYLINDRICAL_SURFACE('',#143,0.685);
#113=CYLINDRICAL_SURFACE('',#145,0.75);
#114=CYLINDRICAL_SURFACE('',#148,0.935);
#115=CYLINDRICAL_SURFACE('',#151,1.);
#116=ADVANCED_FACE('',(#23),#112,.F.);
#117=ADVANCED_FACE('',(#24),#113,.T.);
#118=ADVANCED_FACE('',(#25,#15),#20,.T.);
#119=ADVANCED_FACE('',(#26,#16),#114,.F.);
#120=ADVANCED_FACE('',(#27,#17),#115,.T.);
#121=ADVANCED_FACE('',(#28,#18),#21,.T.);
#122=ADVANCED_FACE('',(#29,#19),#22,.F.);
#123=CLOSED_SHELL('',(#116,#117,#118,#119,#120,#121,#122));
#124=DERIVED_UNIT_ELEMENT(#126,1.);
#125=DERIVED_UNIT_ELEMENT(#339,3.);
#126=(
MASS_UNIT()
NAMED_UNIT(*)
SI_UNIT($,.GRAM.)
);
#127=DERIVED_UNIT((#124,#125));
#128=MEASURE_REPRESENTATION_ITEM('density measure',
POSITIVE_RATIO_MEASURE(1.),#127);
#129=PROPERTY_DEFINITION_REPRESENTATION(#134,#131);
#130=PROPERTY_DEFINITION_REPRESENTATION(#135,#132);
#131=REPRESENTATION('material name',(#133),#334);
#132=REPRESENTATION('density',(#128),#334);
#133=DESCRIPTIVE_REPRESENTATION_ITEM('Generic','Generic');
#134=PROPERTY_DEFINITION('material property','material name',#347);
#135=PROPERTY_DEFINITION('material property','density of part',#347);
#136=DATE_TIME_ROLE('creation_date');
#137=APPLIED_DATE_AND_TIME_ASSIGNMENT(#138,#136,(#347));
#138=DATE_AND_TIME(#139,#140);
#139=CALENDAR_DATE(2012,29,6);
#140=LOCAL_TIME(12,39,31.,#141);
#141=COORDINATED_UNIVERSAL_TIME_OFFSET(0,0,.BEHIND.);
#142=AXIS2_PLACEMENT_3D('placement',#188,#156,#157);
#143=AXIS2_PLACEMENT_3D('',#189,#158,#159);
#144=AXIS2_PLACEMENT_3D('',#191,#160,#161);
#145=AXIS2_PLACEMENT_3D('',#251,#163,#164);
#146=AXIS2_PLACEMENT_3D('',#316,#166,#167);
#147=AXIS2_PLACEMENT_3D('',#317,#168,#169);
#148=AXIS2_PLACEMENT_3D('',#318,#170,#171);
#149=AXIS2_PLACEMENT_3D('',#320,#172,#173);
#150=AXIS2_PLACEMENT_3D('',#323,#175,#176);
#151=AXIS2_PLACEMENT_3D('',#324,#177,#178);
#152=AXIS2_PLACEMENT_3D('',#326,#179,#180);
#153=AXIS2_PLACEMENT_3D('',#329,#182,#183);
#154=AXIS2_PLACEMENT_3D('',#330,#184,#185);
#155=AXIS2_PLACEMENT_3D('',#331,#186,#187);
#156=DIRECTION('axis',(0.,0.,1.));
#157=DIRECTION('refdir',(1.,0.,0.));
#158=DIRECTION('center_axis',(0.,0.,-1.));
#159=DIRECTION('ref_axis',(-1.,0.,0.));
#160=DIRECTION('center_axis',(0.,0.,-1.));
#161=DIRECTION('ref_axis',(-1.,0.,0.));
#162=DIRECTION('',(0.,0.,-1.));
#163=DIRECTION('center_axis',(0.,0.,-1.));
#164=DIRECTION('ref_axis',(-1.,0.,0.));
#165=DIRECTION('',(0.,0.,1.));
#166=DIRECTION('center_axis',(0.,0.,-1.));
#167=DIRECTION('ref_axis',(-1.,0.,0.));
#168=DIRECTION('center_axis',(0.,0.,1.));
#169=DIRECTION('ref_axis',(1.,0.,0.));
#170=DIRECTION('center_axis',(-1.,0.,0.));
#171=DIRECTION('ref_axis',(0.,-1.,0.));
#172=DIRECTION('center_axis',(-1.,0.,0.));
#173=DIRECTION('ref_axis',(0.,-1.,0.));
#174=DIRECTION('',(-1.,0.,0.));
#175=DIRECTION('center_axis',(1.,0.,0.));
#176=DIRECTION('ref_axis',(0.,-1.,0.));
#177=DIRECTION('center_axis',(-1.,0.,0.));
#178=DIRECTION('ref_axis',(0.,-1.,0.));
#179=DIRECTION('center_axis',(-1.,0.,0.));
#180=DIRECTION('ref_axis',(0.,-1.,0.));
#181=DIRECTION('',(1.,0.,0.));
#182=DIRECTION('center_axis',(-1.,0.,0.));
#183=DIRECTION('ref_axis',(0.,-1.,0.));
#184=DIRECTION('center_axis',(1.,0.,0.));
#185=DIRECTION('ref_axis',(0.,0.,-1.));
#186=DIRECTION('center_axis',(1.,0.,0.));
#187=DIRECTION('ref_axis',(0.,0.,-1.));
#188=CARTESIAN_POINT('',(0.,0.,0.));
#189=CARTESIAN_POINT('Origin',(0.,-0.25,1.905));
#190=CARTESIAN_POINT('',(0.685,-0.25,1.905));
#191=CARTESIAN_POINT('Origin',(0.,-0.25,1.905));
#192=CARTESIAN_POINT('',(0.685,-0.25,0.90095782365214));
#193=CARTESIAN_POINT('',(0.685,-0.25,1.905));
#194=CARTESIAN_POINT('',(0.,-0.935,-3.49676543189026E-16));
#195=CARTESIAN_POINT('Ctrl Pts',(0.,-0.935,0.));
#196=CARTESIAN_POINT('Ctrl Pts',(0.0878033318459279,-0.935,0.102582083585546));
#197=CARTESIAN_POINT('Ctrl Pts',(0.183216014472877,-0.917308035674121,0.213969021182296));
#198=CARTESIAN_POINT('Ctrl Pts',(0.363310142510131,-0.83895991334534,0.428232575862723));
#199=CARTESIAN_POINT('Ctrl Pts',(0.447958242634554,-0.778313239537989,0.53114068598632));
#200=CARTESIAN_POINT('Ctrl Pts',(0.561396897493609,-0.648619022888197,0.678069373105452));
#201=CARTESIAN_POINT('Ctrl Pts',(0.605236445948875,-0.581500420971787,0.737947383702321));
#202=CARTESIAN_POINT('Ctrl Pts',(0.651685026216732,-0.465119266609838,0.812410066118753));
#203=CARTESIAN_POINT('Ctrl Pts',(0.664028533624039,-0.423751570807673,0.834777117399233));
#204=CARTESIAN_POINT('Ctrl Pts',(0.680691887320754,-0.338215964383343,0.872942260986726));
#205=CARTESIAN_POINT('Ctrl Pts',(0.685,-0.294043998379248,0.888736386304298));
#206=CARTESIAN_POINT('Ctrl Pts',(0.685,-0.25,0.90095782365214));
#207=CARTESIAN_POINT('Ctrl Pts',(0.685,-0.25,0.90095782365214));
#208=CARTESIAN_POINT('Ctrl Pts',(0.685,-0.208587846622922,0.912448970154761));
#209=CARTESIAN_POINT('Ctrl Pts',(0.681173739028202,-0.165253664258444,0.921322400734268));
#210=CARTESIAN_POINT('Ctrl Pts',(0.664628358516563,-0.0783936212169939,
0.93273692956788));
#211=CARTESIAN_POINT('Ctrl Pts',(0.651906107659293,-0.0348694242776141,
0.935286147636279));
#212=CARTESIAN_POINT('Ctrl Pts',(0.618036946615284,0.0488194596893835,0.934661818621609));
#213=CARTESIAN_POINT('Ctrl Pts',(0.596847961189825,0.0890966886177987,0.931504815297497));
#214=CARTESIAN_POINT('Ctrl Pts',(0.54783997304857,0.163624729444047,0.921339453617948));
#215=CARTESIAN_POINT('Ctrl Pts',(0.520018957908062,0.197877458744565,0.914354868974499));
#216=CARTESIAN_POINT('Ctrl Pts',(0.459998347695212,0.259445902434466,0.89886227175524));
#217=CARTESIAN_POINT('Ctrl Pts',(0.425562434518413,0.288698850073623,0.889735171662112));
#218=CARTESIAN_POINT('Ctrl Pts',(0.350487265092507,0.340303746793984,0.871303082645218));
#219=CARTESIAN_POINT('Ctrl Pts',(0.309846750258515,0.362664029553082,0.862026564040705));
#220=CARTESIAN_POINT('Ctrl Pts',(0.224716731663296,0.398740696852098,0.845943822884718));
#221=CARTESIAN_POINT('Ctrl Pts',(0.180146618206379,0.412485206805031,0.839156800019619));
#222=CARTESIAN_POINT('Ctrl Pts',(0.0899857462606169,0.430618849352745,0.829997342200418));
#223=CARTESIAN_POINT('Ctrl Pts',(0.0443911123853296,0.435,0.827647267862343));
#224=CARTESIAN_POINT('Ctrl Pts',(-0.0443911123853296,0.435,0.827647267862343));
#225=CARTESIAN_POINT('Ctrl Pts',(-0.089985746260617,0.430618849352745,0.829997342200418));
#226=CARTESIAN_POINT('Ctrl Pts',(-0.180146618206379,0.412485206805031,0.839156800019619));
#227=CARTESIAN_POINT('Ctrl Pts',(-0.224716731663296,0.398740696852098,0.845943822884718));
#228=CARTESIAN_POINT('Ctrl Pts',(-0.309846750258516,0.362664029553082,0.862026564040705));
#229=CARTESIAN_POINT('Ctrl Pts',(-0.350487265092507,0.340303746793984,0.871303082645218));
#230=CARTESIAN_POINT('Ctrl Pts',(-0.425562434518413,0.288698850073623,0.889735171662112));
#231=CARTESIAN_POINT('Ctrl Pts',(-0.459998347695212,0.259445902434466,0.89886227175524));
#232=CARTESIAN_POINT('Ctrl Pts',(-0.520018957908063,0.197877458744565,0.914354868974499));
#233=CARTESIAN_POINT('Ctrl Pts',(-0.54783997304857,0.163624729444047,0.921339453617948));
#234=CARTESIAN_POINT('Ctrl Pts',(-0.596847961189825,0.0890966886177986,
0.931504815297497));
#235=CARTESIAN_POINT('Ctrl Pts',(-0.618036946615284,0.0488194596893836,
0.934661818621609));
#236=CARTESIAN_POINT('Ctrl Pts',(-0.651906107659293,-0.0348694242776137,
0.935286147636279));
#237=CARTESIAN_POINT('Ctrl Pts',(-0.664628358516563,-0.0783936212169934,
0.93273692956788));
#238=CARTESIAN_POINT('Ctrl Pts',(-0.681173739028202,-0.165253664258444,
0.921322400734268));
#239=CARTESIAN_POINT('Ctrl Pts',(-0.684999999999999,-0.208587846622922,
0.912448970154761));
#240=CARTESIAN_POINT('Ctrl Pts',(-0.684999999999999,-0.294043998379248,
0.888736386304299));
#241=CARTESIAN_POINT('Ctrl Pts',(-0.680691887320754,-0.338215964383343,
0.872942260986727));
#242=CARTESIAN_POINT('Ctrl Pts',(-0.664028533624039,-0.423751570807672,
0.834777117399233));
#243=CARTESIAN_POINT('Ctrl Pts',(-0.651685026216733,-0.465119266609837,
0.812410066118753));
#244=CARTESIAN_POINT('Ctrl Pts',(-0.605236445948876,-0.581500420971786,
0.737947383702321));
#245=CARTESIAN_POINT('Ctrl Pts',(-0.561396897493609,-0.648619022888197,
0.678069373105453));
#246=CARTESIAN_POINT('Ctrl Pts',(-0.447958242634554,-0.778313239537988,
0.531140685986321));
#247=CARTESIAN_POINT('Ctrl Pts',(-0.363310142510132,-0.83895991334534,0.428232575862723));
#248=CARTESIAN_POINT('Ctrl Pts',(-0.183216014472878,-0.917308035674121,
0.213969021182296));
#249=CARTESIAN_POINT('Ctrl Pts',(-0.0878033318459281,-0.935,0.102582083585547));
#250=CARTESIAN_POINT('Ctrl Pts',(0.,-0.935,0.));
#251=CARTESIAN_POINT('Origin',(0.,-0.25,1.905));
#252=CARTESIAN_POINT('',(0.,-1.,0.));
#253=CARTESIAN_POINT('',(0.75,-0.25,0.968245836551854));
#254=CARTESIAN_POINT('Ctrl Pts',(0.,-1.,0.));
#255=CARTESIAN_POINT('Ctrl Pts',(-0.0480705775097634,-1.,0.0555071217307254));
#256=CARTESIAN_POINT('Ctrl Pts',(-0.098225424311784,-0.995319720600908,
0.11341421087848));
#257=CARTESIAN_POINT('Ctrl Pts',(-0.199133089522138,-0.97491084439578,0.230375726078419));
#258=CARTESIAN_POINT('Ctrl Pts',(-0.249885176089068,-0.959187531531013,
0.289431705461998));
#259=CARTESIAN_POINT('Ctrl Pts',(-0.397762314366403,-0.894859075974515,
0.463112442423765));
#260=CARTESIAN_POINT('Ctrl Pts',(-0.490450128303269,-0.828476527677822,
0.574195534027715));
#261=CARTESIAN_POINT('Ctrl Pts',(-0.614751562129312,-0.686339244385559,
0.732330115014552));
#262=CARTESIAN_POINT('Ctrl Pts',(-0.66276795386979,-0.612775155913637,0.796563541659041));
#263=CARTESIAN_POINT('Ctrl Pts',(-0.713591702429407,-0.485326748095354,
0.875762351610458));
#264=CARTESIAN_POINT('Ctrl Pts',(-0.72708854270193,-0.440039491908994,0.899419637773554));
#265=CARTESIAN_POINT('Ctrl Pts',(-0.745298989638718,-0.346447775884562,
0.939448975694691));
#266=CARTESIAN_POINT('Ctrl Pts',(-0.75,-0.298138897868924,0.955816426568446));
#267=CARTESIAN_POINT('Ctrl Pts',(-0.75,-0.204428467021754,0.980012355770913));
#268=CARTESIAN_POINT('Ctrl Pts',(-0.745768237319993,-0.15682106044105,0.988789248458731));
#269=CARTESIAN_POINT('Ctrl Pts',(-0.727554284787636,-0.0615395498237517,
0.999254675574332));
#270=CARTESIAN_POINT('Ctrl Pts',(-0.71356967541503,-0.0138669091019881,
1.00095231952767));
#271=CARTESIAN_POINT('Ctrl Pts',(-0.676431289719269,0.0776907441122836,
0.998029050591767));
#272=CARTESIAN_POINT('Ctrl Pts',(-0.653232123537184,0.121699407025289,0.993423078629567));
#273=CARTESIAN_POINT('Ctrl Pts',(-0.5996661330991,0.203070838872173,0.980031832783333));
#274=CARTESIAN_POINT('Ctrl Pts',(-0.569297124310405,0.240436363713344,0.971272055734917));
#275=CARTESIAN_POINT('Ctrl Pts',(-0.503753573658482,0.307688143915555,0.952152251924665));
#276=CARTESIAN_POINT('Ctrl Pts',(-0.466100402744969,0.339688467385138,0.941028044721295));
#277=CARTESIAN_POINT('Ctrl Pts',(-0.384006508994304,0.396158707071767,0.918684012518693));
#278=CARTESIAN_POINT('Ctrl Pts',(-0.339564214086496,0.420638647831323,0.907495310533182));
#279=CARTESIAN_POINT('Ctrl Pts',(-0.246412723377453,0.460169459315676,0.88810405413396));
#280=CARTESIAN_POINT('Ctrl Pts',(-0.197613322449008,0.475251332049097,0.879923814222542));
#281=CARTESIAN_POINT('Ctrl Pts',(-0.0987939315947748,0.495171307789607,
0.86887002728322));
#282=CARTESIAN_POINT('Ctrl Pts',(-0.0487688117091323,0.5,0.866025403784439));
#283=CARTESIAN_POINT('Ctrl Pts',(0.0487688117091323,0.5,0.866025403784439));
#284=CARTESIAN_POINT('Ctrl Pts',(0.098793931594775,0.495171307789607,0.86887002728322));
#285=CARTESIAN_POINT('Ctrl Pts',(0.197613322449009,0.475251332049097,0.879923814222542));
#286=CARTESIAN_POINT('Ctrl Pts',(0.246412723377453,0.460169459315676,0.88810405413396));
#287=CARTESIAN_POINT('Ctrl Pts',(0.339564214086496,0.420638647831323,0.907495310533183));
#288=CARTESIAN_POINT('Ctrl Pts',(0.384006508994303,0.396158707071768,0.918684012518693));
#289=CARTESIAN_POINT('Ctrl Pts',(0.466100402744969,0.339688467385138,0.941028044721295));
#290=CARTESIAN_POINT('Ctrl Pts',(0.503753573658481,0.307688143915555,0.952152251924665));
#291=CARTESIAN_POINT('Ctrl Pts',(0.569297124310405,0.240436363713344,0.971272055734917));
#292=CARTESIAN_POINT('Ctrl Pts',(0.5996661330991,0.203070838872173,0.980031832783334));
#293=CARTESIAN_POINT('Ctrl Pts',(0.653232123537184,0.121699407025289,0.993423078629568));
#294=CARTESIAN_POINT('Ctrl Pts',(0.67643128971927,0.0776907441122833,0.998029050591767));
#295=CARTESIAN_POINT('Ctrl Pts',(0.71356967541503,-0.0138669091019885,1.00095231952767));
#296=CARTESIAN_POINT('Ctrl Pts',(0.727554284787636,-0.0615395498237522,
0.999254675574332));
#297=CARTESIAN_POINT('Ctrl Pts',(0.745768237319993,-0.15682106044105,0.988789248458731));
#298=CARTESIAN_POINT('Ctrl Pts',(0.75,-0.204428467021754,0.980012355770913));
#299=CARTESIAN_POINT('Ctrl Pts',(0.75,-0.25,0.968245836551854));
#300=CARTESIAN_POINT('Ctrl Pts',(0.75,-0.25,0.968245836551854));
#301=CARTESIAN_POINT('Ctrl Pts',(0.75,-0.298138897868924,0.955816426568446));
#302=CARTESIAN_POINT('Ctrl Pts',(0.745298989638718,-0.346447775884561,0.939448975694691));
#303=CARTESIAN_POINT('Ctrl Pts',(0.72708854270193,-0.440039491908994,0.899419637773554));
#304=CARTESIAN_POINT('Ctrl Pts',(0.713591702429407,-0.485326748095354,0.875762351610458));
#305=CARTESIAN_POINT('Ctrl Pts',(0.66276795386979,-0.612775155913637,0.796563541659041));
#306=CARTESIAN_POINT('Ctrl Pts',(0.614751562129312,-0.68633924438556,0.732330115014552));
#307=CARTESIAN_POINT('Ctrl Pts',(0.490450128303269,-0.828476527677822,0.574195534027715));
#308=CARTESIAN_POINT('Ctrl Pts',(0.397762314366403,-0.894859075974515,0.463112442423765));
#309=CARTESIAN_POINT('Ctrl Pts',(0.249885176089068,-0.959187531531013,0.289431705461998));
#310=CARTESIAN_POINT('Ctrl Pts',(0.199133089522138,-0.97491084439578,0.230375726078419));
#311=CARTESIAN_POINT('Ctrl Pts',(0.0982254243117838,-0.995319720600909,
0.11341421087848));
#312=CARTESIAN_POINT('Ctrl Pts',(0.0480705775097633,-1.,0.0555071217307252));
#313=CARTESIAN_POINT('Ctrl Pts',(0.,-1.,0.));
#314=CARTESIAN_POINT('',(0.75,-0.25,1.905));
#315=CARTESIAN_POINT('',(0.75,-0.25,1.905));
#316=CARTESIAN_POINT('Origin',(0.,-0.25,1.905));
#317=CARTESIAN_POINT('Origin',(-3.82469159145332E-17,-0.25,1.905));
#318=CARTESIAN_POINT('Origin',(2.0625,0.,0.));
#319=CARTESIAN_POINT('',(2.0625,0.935,1.14504475720278E-16));
#320=CARTESIAN_POINT('Origin',(2.0625,0.,0.));
#321=CARTESIAN_POINT('',(-2.0625,0.935,1.14504475720278E-16));
#322=CARTESIAN_POINT('',(2.0625,0.935,-1.14504475720278E-16));
#323=CARTESIAN_POINT('Origin',(-2.0625,0.,0.));
#324=CARTESIAN_POINT('Origin',(2.0625,0.,0.));
#325=CARTESIAN_POINT('',(-2.0625,1.,-1.22464679914735E-16));
#326=CARTESIAN_POINT('Origin',(-2.0625,0.,0.));
#327=CARTESIAN_POINT('',(2.0625,1.,1.22464679914735E-16));
#328=CARTESIAN_POINT('',(2.0625,1.,-1.22464679914735E-16));
#329=CARTESIAN_POINT('Origin',(2.0625,0.,0.));
#330=CARTESIAN_POINT('Origin',(2.0625,-5.6094700122688E-17,-2.29446550648967E-17));
#331=CARTESIAN_POINT('Origin',(-2.0625,0.,0.));
#332=UNCERTAINTY_MEASURE_WITH_UNIT(LENGTH_MEASURE(0.000393700787401575),
#337,'DISTANCE_ACCURACY_VALUE',
'Maximum model space distance between geometric entities at asserted c
onnectivities');
#333=UNCERTAINTY_MEASURE_WITH_UNIT(LENGTH_MEASURE(0.000393700787401575),
#337,'DISTANCE_ACCURACY_VALUE',
'Maximum model space distance between geometric entities at asserted c
onnectivities');
#334=(
GEOMETRIC_REPRESENTATION_CONTEXT(3)
GLOBAL_UNCERTAINTY_ASSIGNED_CONTEXT((#332))
GLOBAL_UNIT_ASSIGNED_CONTEXT((#337,#341,#342))
REPRESENTATION_CONTEXT('','3D')
);
#335=(
GEOMETRIC_REPRESENTATION_CONTEXT(3)
GLOBAL_UNCERTAINTY_ASSIGNED_CONTEXT((#333))
GLOBAL_UNIT_ASSIGNED_CONTEXT((#337,#341,#342))
REPRESENTATION_CONTEXT('','3D')
);
#336=DIMENSIONAL_EXPONENTS(1.,0.,0.,0.,0.,0.,0.);
#337=(
CONVERSION_BASED_UNIT('inch',#340)
LENGTH_UNIT()
NAMED_UNIT(#336)
);
#338=(
LENGTH_UNIT()
NAMED_UNIT(*)
SI_UNIT(.MILLI.,.METRE.)
);
#339=(
LENGTH_UNIT()
NAMED_UNIT(*)
SI_UNIT(.CENTI.,.METRE.)
);
#340=LENGTH_MEASURE_WITH_UNIT(LENGTH_MEASURE(25.4),#338);
#341=(
NAMED_UNIT(*)
PLANE_ANGLE_UNIT()
SI_UNIT($,.RADIAN.)
);
#342=(
NAMED_UNIT(*)
SI_UNIT($,.STERADIAN.)
SOLID_ANGLE_UNIT()
);
#343=SHAPE_DEFINITION_REPRESENTATION(#344,#345);
#344=PRODUCT_DEFINITION_SHAPE('',$,#347);
#345=SHAPE_REPRESENTATION('',(#142),#334);
#346=PRODUCT_DEFINITION_CONTEXT('part definition',#351,'design');
#347=PRODUCT_DEFINITION('7ERWWW-2X5','7ERWWW-2X15',#348,#346);
#348=PRODUCT_DEFINITION_FORMATION('',$,#353);
#349=PRODUCT_RELATED_PRODUCT_CATEGORY('7ERWWW-2X15','7ERWWW-2X15',(#353));
#350=APPLICATION_PROTOCOL_DEFINITION('international standard',
'automotive_design',2009,#351);
#351=APPLICATION_CONTEXT(
'Core Data for Automotive Mechanical Design Process');
#352=PRODUCT_CONTEXT('part definition',#351,'mechanical');
#353=PRODUCT('7ERWWW-2X5','7ERWWW-2X15',$,(#352));
#354=PRESENTATION_STYLE_ASSIGNMENT((#355));
#355=SURFACE_STYLE_USAGE(.BOTH.,#358);
#356=SURFACE_STYLE_RENDERING_WITH_PROPERTIES($,#362,(#357));
#357=SURFACE_STYLE_TRANSPARENT(0.);
#358=SURFACE_SIDE_STYLE('',(#359,#356));
#359=SURFACE_STYLE_FILL_AREA(#360);
#360=FILL_AREA_STYLE('',(#361));
#361=FILL_AREA_STYLE_COLOUR('',#362);
#362=COLOUR_RGB('',0.749019607843137,0.749019607843137,0.749019607843137);
ENDSEC;
END-ISO-10303-21;
