ISO-10303-21;
HEADER;
/* Generated by software containing ST-Developer
 * from STEP Tools, Inc. (www.steptools.com) 
 */

FILE_DESCRIPTION(
/* description */ (''),
/* implementation_level */ '2;1');

FILE_NAME(
/* name */ 
'W:\\AUTOCAD\\AutoCad - Projects\\Numbered\\7ERWWW\\7ERWWW\\7ERWWW-2x1.
stp',
/* time_stamp */ '2021-09-01T15:02:41-04:00',
/* author */ ('rick'),
/* organization */ (''),
/* preprocessor_version */ 'ST-DEVELOPER v18',
/* originating_system */ 'Autodesk Inventor 2020',
/* authorisation */ '');

FILE_SCHEMA (('AUTOMOTIVE_DESIGN { 1 0 10303 214 3 1 1 }'));
ENDSEC;

DATA;
#10=MECHANICAL_DESIGN_GEOMETRIC_PRESENTATION_REPRESENTATION('',(#13),#307);
#11=SHAPE_REPRESENTATION_RELATIONSHIP('SRR','None',#317,#12);
#12=ADVANCED_BREP_SHAPE_REPRESENTATION('',(#14),#306);
#13=STYLED_ITEM('',(#326),#14);
#14=MANIFOLD_SOLID_BREP('Solid1',#123);
#15=FACE_BOUND('',#33,.T.);
#16=FACE_BOUND('',#35,.T.);
#17=FACE_BOUND('',#37,.T.);
#18=FACE_BOUND('',#39,.T.);
#19=FACE_BOUND('',#41,.T.);
#20=PLANE('',#147);
#21=PLANE('',#154);
#22=PLANE('',#155);
#23=FACE_OUTER_BOUND('',#30,.T.);
#24=FACE_OUTER_BOUND('',#31,.T.);
#25=FACE_OUTER_BOUND('',#32,.T.);
#26=FACE_OUTER_BOUND('',#34,.T.);
#27=FACE_OUTER_BOUND('',#36,.T.);
#28=FACE_OUTER_BOUND('',#38,.T.);
#29=FACE_OUTER_BOUND('',#40,.T.);
#30=EDGE_LOOP('',(#84,#85,#86,#87,#88));
#31=EDGE_LOOP('',(#89,#90,#91,#92,#93));
#32=EDGE_LOOP('',(#94));
#33=EDGE_LOOP('',(#95));
#34=EDGE_LOOP('',(#96,#97,#98,#99));
#35=EDGE_LOOP('',(#100,#101));
#36=EDGE_LOOP('',(#102,#103,#104,#105));
#37=EDGE_LOOP('',(#106,#107));
#38=EDGE_LOOP('',(#108));
#39=EDGE_LOOP('',(#109));
#40=EDGE_LOOP('',(#110));
#41=EDGE_LOOP('',(#111));
#42=B_SPLINE_CURVE_WITH_KNOTS('',3,(#195,#196,#197,#198,#199,#200,#201,
#202,#203,#204),.UNSPECIFIED.,.F.,.F.,(4,2,2,2,4),(0.,0.752993996869443,
1.50598799373889,2.02035818723985,2.53472838074082),.UNSPECIFIED.);
#43=B_SPLINE_CURVE_WITH_KNOTS('',3,(#205,#206,#207,#208,#209,#210,#211,
#212,#213,#214,#215,#216,#217,#218,#219,#220,#221,#222,#223,#224,#225,#226,
#227,#228,#229,#230,#231,#232,#233,#234,#235,#236,#237,#238),
 .UNSPECIFIED.,.F.,.F.,(4,2,2,2,2,2,2,2,2,2,2,2,2,2,2,2,4),(2.53472838074082,
2.75984478776033,2.98496119477984,3.21007760179935,3.43519400881886,3.8505895333819,
4.26598505794494,4.68138058250798,5.09677610707101,5.32189251409052,5.54700892111003,
5.77212532812954,5.99724173514906,6.51161192865002,7.02598212215099,7.77897611902043,
8.53197011588988),.UNSPECIFIED.);
#44=B_SPLINE_CURVE_WITH_KNOTS('',3,(#242,#243,#244,#245,#246,#247,#248,
#249,#250,#251,#252,#253,#254,#255,#256,#257,#258,#259,#260,#261,#262,#263,
#264,#265,#266,#267,#268,#269,#270,#271,#272,#273,#274,#275),
 .UNSPECIFIED.,.F.,.F.,(4,2,2,2,2,2,2,2,2,2,2,2,2,2,2,2,4),(0.,0.844915948091808,
1.68983189618362,2.26565844504029,2.84148499389697,3.09512951654545,3.34877403919392,
3.60241856184239,3.85606308449087,4.33526707672802,4.81447106896517,5.29367506120231,
5.77287905343946,6.02652357608794,6.28016809873641,6.53381262138488,6.78745714403336),
 .UNSPECIFIED.);
#45=B_SPLINE_CURVE_WITH_KNOTS('',3,(#276,#277,#278,#279,#280,#281,#282,
#283,#284,#285),.UNSPECIFIED.,.F.,.F.,(4,2,2,2,4),(6.78745714403336,7.36328369289004,
7.93911024174671,8.78402618983852,9.62894213793033),.UNSPECIFIED.);
#46=LINE('',#193,#50);
#47=LINE('',#287,#51);
#48=LINE('',#294,#52);
#49=LINE('',#300,#53);
#50=VECTOR('',#162,0.435);
#51=VECTOR('',#165,0.5);
#52=VECTOR('',#174,0.935);
#53=VECTOR('',#181,1.);
#54=CIRCLE('',#144,0.435);
#55=CIRCLE('',#146,0.5);
#56=CIRCLE('',#149,0.935);
#57=CIRCLE('',#150,0.935);
#58=CIRCLE('',#152,1.);
#59=CIRCLE('',#153,1.);
#60=VERTEX_POINT('',#190);
#61=VERTEX_POINT('',#192);
#62=VERTEX_POINT('',#194);
#63=VERTEX_POINT('',#240);
#64=VERTEX_POINT('',#241);
#65=VERTEX_POINT('',#286);
#66=VERTEX_POINT('',#291);
#67=VERTEX_POINT('',#293);
#68=VERTEX_POINT('',#297);
#69=VERTEX_POINT('',#299);
#70=EDGE_CURVE('',#60,#60,#54,.T.);
#71=EDGE_CURVE('',#60,#61,#46,.T.);
#72=EDGE_CURVE('',#62,#61,#42,.T.);
#73=EDGE_CURVE('',#61,#62,#43,.T.);
#74=EDGE_CURVE('',#63,#64,#44,.T.);
#75=EDGE_CURVE('',#64,#63,#45,.T.);
#76=EDGE_CURVE('',#64,#65,#47,.T.);
#77=EDGE_CURVE('',#65,#65,#55,.T.);
#78=EDGE_CURVE('',#66,#66,#56,.T.);
#79=EDGE_CURVE('',#66,#67,#48,.T.);
#80=EDGE_CURVE('',#67,#67,#57,.T.);
#81=EDGE_CURVE('',#68,#68,#58,.T.);
#82=EDGE_CURVE('',#68,#69,#49,.T.);
#83=EDGE_CURVE('',#69,#69,#59,.T.);
#84=ORIENTED_EDGE('',*,*,#70,.F.);
#85=ORIENTED_EDGE('',*,*,#71,.T.);
#86=ORIENTED_EDGE('',*,*,#72,.F.);
#87=ORIENTED_EDGE('',*,*,#73,.F.);
#88=ORIENTED_EDGE('',*,*,#71,.F.);
#89=ORIENTED_EDGE('',*,*,#74,.F.);
#90=ORIENTED_EDGE('',*,*,#75,.F.);
#91=ORIENTED_EDGE('',*,*,#76,.T.);
#92=ORIENTED_EDGE('',*,*,#77,.T.);
#93=ORIENTED_EDGE('',*,*,#76,.F.);
#94=ORIENTED_EDGE('',*,*,#77,.F.);
#95=ORIENTED_EDGE('',*,*,#70,.T.);
#96=ORIENTED_EDGE('',*,*,#78,.F.);
#97=ORIENTED_EDGE('',*,*,#79,.T.);
#98=ORIENTED_EDGE('',*,*,#80,.F.);
#99=ORIENTED_EDGE('',*,*,#79,.F.);
#100=ORIENTED_EDGE('',*,*,#72,.T.);
#101=ORIENTED_EDGE('',*,*,#73,.T.);
#102=ORIENTED_EDGE('',*,*,#81,.F.);
#103=ORIENTED_EDGE('',*,*,#82,.T.);
#104=ORIENTED_EDGE('',*,*,#83,.T.);
#105=ORIENTED_EDGE('',*,*,#82,.F.);
#106=ORIENTED_EDGE('',*,*,#74,.T.);
#107=ORIENTED_EDGE('',*,*,#75,.T.);
#108=ORIENTED_EDGE('',*,*,#83,.F.);
#109=ORIENTED_EDGE('',*,*,#78,.T.);
#110=ORIENTED_EDGE('',*,*,#81,.T.);
#111=ORIENTED_EDGE('',*,*,#80,.T.);
#112=CYLINDRICAL_SURFACE('',#143,0.435);
#113=CYLINDRICAL_SURFACE('',#145,0.5);
#114=CYLINDRICAL_SURFACE('',#148,0.935);
#115=CYLINDRICAL_SURFACE('',#151,1.);
#116=ADVANCED_FACE('',(#23),#112,.F.);
#117=ADVANCED_FACE('',(#24),#113,.T.);
#118=ADVANCED_FACE('',(#25,#15),#20,.T.);
#119=ADVANCED_FACE('',(#26,#16),#114,.F.);
#120=ADVANCED_FACE('',(#27,#17),#115,.T.);
#121=ADVANCED_FACE('',(#28,#18),#21,.T.);
#122=ADVANCED_FACE('',(#29,#19),#22,.F.);
#123=CLOSED_SHELL('',(#116,#117,#118,#119,#120,#121,#122));
#124=DERIVED_UNIT_ELEMENT(#126,1.);
#125=DERIVED_UNIT_ELEMENT(#311,3.);
#126=(
MASS_UNIT()
NAMED_UNIT(*)
SI_UNIT($,.GRAM.)
);
#127=DERIVED_UNIT((#124,#125));
#128=MEASURE_REPRESENTATION_ITEM('density measure',
POSITIVE_RATIO_MEASURE(1.),#127);
#129=PROPERTY_DEFINITION_REPRESENTATION(#134,#131);
#130=PROPERTY_DEFINITION_REPRESENTATION(#135,#132);
#131=REPRESENTATION('material name',(#133),#306);
#132=REPRESENTATION('density',(#128),#306);
#133=DESCRIPTIVE_REPRESENTATION_ITEM('Generic','Generic');
#134=PROPERTY_DEFINITION('material property','material name',#319);
#135=PROPERTY_DEFINITION('material property','density of part',#319);
#136=DATE_TIME_ROLE('creation_date');
#137=APPLIED_DATE_AND_TIME_ASSIGNMENT(#138,#136,(#319));
#138=DATE_AND_TIME(#139,#140);
#139=CALENDAR_DATE(2012,29,6);
#140=LOCAL_TIME(12,39,31.,#141);
#141=COORDINATED_UNIVERSAL_TIME_OFFSET(0,0,.BEHIND.);
#142=AXIS2_PLACEMENT_3D('placement',#188,#156,#157);
#143=AXIS2_PLACEMENT_3D('',#189,#158,#159);
#144=AXIS2_PLACEMENT_3D('',#191,#160,#161);
#145=AXIS2_PLACEMENT_3D('',#239,#163,#164);
#146=AXIS2_PLACEMENT_3D('',#288,#166,#167);
#147=AXIS2_PLACEMENT_3D('',#289,#168,#169);
#148=AXIS2_PLACEMENT_3D('',#290,#170,#171);
#149=AXIS2_PLACEMENT_3D('',#292,#172,#173);
#150=AXIS2_PLACEMENT_3D('',#295,#175,#176);
#151=AXIS2_PLACEMENT_3D('',#296,#177,#178);
#152=AXIS2_PLACEMENT_3D('',#298,#179,#180);
#153=AXIS2_PLACEMENT_3D('',#301,#182,#183);
#154=AXIS2_PLACEMENT_3D('',#302,#184,#185);
#155=AXIS2_PLACEMENT_3D('',#303,#186,#187);
#156=DIRECTION('axis',(0.,0.,1.));
#157=DIRECTION('refdir',(1.,0.,0.));
#158=DIRECTION('center_axis',(0.,0.,-1.));
#159=DIRECTION('ref_axis',(-1.,0.,0.));
#160=DIRECTION('center_axis',(0.,0.,-1.));
#161=DIRECTION('ref_axis',(-1.,0.,0.));
#162=DIRECTION('',(0.,0.,-1.));
#163=DIRECTION('center_axis',(0.,0.,-1.));
#164=DIRECTION('ref_axis',(-1.,0.,0.));
#165=DIRECTION('',(0.,0.,1.));
#166=DIRECTION('center_axis',(0.,0.,-1.));
#167=DIRECTION('ref_axis',(-1.,0.,0.));
#168=DIRECTION('center_axis',(0.,0.,1.));
#169=DIRECTION('ref_axis',(1.,0.,0.));
#170=DIRECTION('center_axis',(-1.,0.,0.));
#171=DIRECTION('ref_axis',(0.,-1.,0.));
#172=DIRECTION('center_axis',(-1.,0.,0.));
#173=DIRECTION('ref_axis',(0.,-1.,0.));
#174=DIRECTION('',(-1.,0.,0.));
#175=DIRECTION('center_axis',(1.,0.,0.));
#176=DIRECTION('ref_axis',(0.,-1.,0.));
#177=DIRECTION('center_axis',(-1.,0.,0.));
#178=DIRECTION('ref_axis',(0.,-1.,0.));
#179=DIRECTION('center_axis',(-1.,0.,0.));
#180=DIRECTION('ref_axis',(0.,-1.,0.));
#181=DIRECTION('',(1.,0.,0.));
#182=DIRECTION('center_axis',(-1.,0.,0.));
#183=DIRECTION('ref_axis',(0.,-1.,0.));
#184=DIRECTION('center_axis',(1.,0.,0.));
#185=DIRECTION('ref_axis',(0.,0.,-1.));
#186=DIRECTION('center_axis',(1.,0.,0.));
#187=DIRECTION('ref_axis',(0.,0.,-1.));
#188=CARTESIAN_POINT('',(0.,0.,0.));
#189=CARTESIAN_POINT('Origin',(0.,-0.5,1.625));
#190=CARTESIAN_POINT('',(0.435,-0.5,1.625));
#191=CARTESIAN_POINT('Origin',(0.,-0.5,1.625));
#192=CARTESIAN_POINT('',(0.435,-0.5,0.790079109963047));
#193=CARTESIAN_POINT('',(0.435,-0.5,1.625));
#194=CARTESIAN_POINT('',(0.,-0.935,-3.49676543189026E-16));
#195=CARTESIAN_POINT('Ctrl Pts',(0.,-0.935,0.));
#196=CARTESIAN_POINT('Ctrl Pts',(0.0556827771589068,-0.935,0.0816360652979651));
#197=CARTESIAN_POINT('Ctrl Pts',(0.116416820143931,-0.923752811794681,0.170547689271062));
#198=CARTESIAN_POINT('Ctrl Pts',(0.230851296464334,-0.873934379520161,0.344448196326864));
#199=CARTESIAN_POINT('Ctrl Pts',(0.284447089150262,-0.835305932998434,0.429489526170404));
#200=CARTESIAN_POINT('Ctrl Pts',(0.355711300578816,-0.754194286746378,0.556000032384357));
#201=CARTESIAN_POINT('Ctrl Pts',(0.38354194185407,-0.711996096422668,0.610052213443137));
#202=CARTESIAN_POINT('Ctrl Pts',(0.423286344254996,-0.613469902929544,0.709053500501481));
#203=CARTESIAN_POINT('Ctrl Pts',(0.435,-0.557040036025764,0.753981436131098));
#204=CARTESIAN_POINT('Ctrl Pts',(0.435,-0.5,0.790079109963047));
#205=CARTESIAN_POINT('Ctrl Pts',(0.435,-0.5,0.790079109963047));
#206=CARTESIAN_POINT('Ctrl Pts',(0.435,-0.475036174085077,0.805877417752814));
#207=CARTESIAN_POINT('Ctrl Pts',(0.432814649661397,-0.448378153786413,0.82104457664103));
#208=CARTESIAN_POINT('Ctrl Pts',(0.422761788343212,-0.393859497310735,0.848546912039467));
#209=CARTESIAN_POINT('Ctrl Pts',(0.414884528050527,-0.366001683358588,0.860884118509362));
#210=CARTESIAN_POINT('Ctrl Pts',(0.393149023124053,-0.311536256584302,0.882056597618996));
#211=CARTESIAN_POINT('Ctrl Pts',(0.379259088491719,-0.284868265787444,0.890925894011792));
#212=CARTESIAN_POINT('Ctrl Pts',(0.346254676562314,-0.234996569163046,0.905359315352773));
#213=CARTESIAN_POINT('Ctrl Pts',(0.327137980651904,-0.211798642598512,0.91093833161462));
#214=CARTESIAN_POINT('Ctrl Pts',(0.268105425385902,-0.153224489297065,0.923175655582141));
#215=CARTESIAN_POINT('Ctrl Pts',(0.219455657436583,-0.119996929847221,0.927533058745128));
#216=CARTESIAN_POINT('Ctrl Pts',(0.112653222392238,-0.0758863547818954,
0.932179214377512));
#217=CARTESIAN_POINT('Ctrl Pts',(0.0545138483678527,-0.0650000000000001,
0.932737905308882));
#218=CARTESIAN_POINT('Ctrl Pts',(-0.0545138483678527,-0.0650000000000001,
0.932737905308882));
#219=CARTESIAN_POINT('Ctrl Pts',(-0.112653222392238,-0.0758863547818954,
0.932179214377512));
#220=CARTESIAN_POINT('Ctrl Pts',(-0.219455657436583,-0.119996929847221,
0.927533058745128));
#221=CARTESIAN_POINT('Ctrl Pts',(-0.268105425385902,-0.153224489297065,
0.923175655582141));
#222=CARTESIAN_POINT('Ctrl Pts',(-0.327137980651904,-0.211798642598512,
0.91093833161462));
#223=CARTESIAN_POINT('Ctrl Pts',(-0.346254676562315,-0.234996569163046,
0.905359315352773));
#224=CARTESIAN_POINT('Ctrl Pts',(-0.379259088491719,-0.284868265787444,
0.890925894011792));
#225=CARTESIAN_POINT('Ctrl Pts',(-0.393149023124053,-0.311536256584302,
0.882056597618996));
#226=CARTESIAN_POINT('Ctrl Pts',(-0.414884528050527,-0.366001683358588,
0.860884118509362));
#227=CARTESIAN_POINT('Ctrl Pts',(-0.422761788343212,-0.393859497310735,
0.848546912039467));
#228=CARTESIAN_POINT('Ctrl Pts',(-0.432814649661397,-0.448378153786413,
0.82104457664103));
#229=CARTESIAN_POINT('Ctrl Pts',(-0.435,-0.475036174085077,0.805877417752814));
#230=CARTESIAN_POINT('Ctrl Pts',(-0.435,-0.557040036025764,0.753981436131098));
#231=CARTESIAN_POINT('Ctrl Pts',(-0.423286344254996,-0.613469902929544,
0.709053500501481));
#232=CARTESIAN_POINT('Ctrl Pts',(-0.38354194185407,-0.711996096422668,0.610052213443137));
#233=CARTESIAN_POINT('Ctrl Pts',(-0.355711300578816,-0.754194286746378,
0.556000032384357));
#234=CARTESIAN_POINT('Ctrl Pts',(-0.284447089150262,-0.835305932998434,
0.429489526170404));
#235=CARTESIAN_POINT('Ctrl Pts',(-0.230851296464334,-0.873934379520161,
0.344448196326864));
#236=CARTESIAN_POINT('Ctrl Pts',(-0.116416820143931,-0.923752811794681,
0.170547689271062));
#237=CARTESIAN_POINT('Ctrl Pts',(-0.0556827771589068,-0.935,0.0816360652979651));
#238=CARTESIAN_POINT('Ctrl Pts',(0.,-0.935,0.));
#239=CARTESIAN_POINT('Origin',(0.,-0.5,1.625));
#240=CARTESIAN_POINT('',(0.,-1.,0.));
#241=CARTESIAN_POINT('',(0.5,-0.5,0.866025403784439));
#242=CARTESIAN_POINT('Ctrl Pts',(0.,-1.,0.));
#243=CARTESIAN_POINT('Ctrl Pts',(-0.064017381899398,-1.,0.0905342497097466));
#244=CARTESIAN_POINT('Ctrl Pts',(-0.13380346272912,-0.987074351059553,0.189090930569144));
#245=CARTESIAN_POINT('Ctrl Pts',(-0.265334799650218,-0.929816398978456,
0.381461304041331));
#246=CARTESIAN_POINT('Ctrl Pts',(-0.326975914030507,-0.885425449914742,
0.47532872457473));
#247=CARTESIAN_POINT('Ctrl Pts',(-0.40899290124387,-0.791999322000985,0.614282158113922));
#248=CARTESIAN_POINT('Ctrl Pts',(-0.440965605518578,-0.743462718590307,
0.673297663178363));
#249=CARTESIAN_POINT('Ctrl Pts',(-0.486580902922002,-0.630245021066923,
0.780293423064928));
#250=CARTESIAN_POINT('Ctrl Pts',(-0.5,-0.565443624604121,0.828241509502504));
#251=CARTESIAN_POINT('Ctrl Pts',(-0.5,-0.471172887120163,0.882668745165572));
#252=CARTESIAN_POINT('Ctrl Pts',(-0.497463459870198,-0.440457809414131,
0.898429682507346));
#253=CARTESIAN_POINT('Ctrl Pts',(-0.485881967149867,-0.377795743141288,
0.926525419332268));
#254=CARTESIAN_POINT('Ctrl Pts',(-0.476826720195359,-0.345851950744619,
0.938863102647857));
#255=CARTESIAN_POINT('Ctrl Pts',(-0.451961518126292,-0.283537190866899,
0.959522871916215));
#256=CARTESIAN_POINT('Ctrl Pts',(-0.436115595703716,-0.253094125867659,
0.967881242145242));
#257=CARTESIAN_POINT('Ctrl Pts',(-0.398617258640349,-0.196250753500007,
0.980987450041602));
#258=CARTESIAN_POINT('Ctrl Pts',(-0.376962715693902,-0.169855934507355,
0.985752995562419));
#259=CARTESIAN_POINT('Ctrl Pts',(-0.309326762213266,-0.102219981026718,
0.995766006138771));
#260=CARTESIAN_POINT('Ctrl Pts',(-0.253169381573416,-0.0637039405308753,
0.998296436638969));
#261=CARTESIAN_POINT('Ctrl Pts',(-0.129946362794795,-0.0125957149757416,
1.00024762406362));
#262=CARTESIAN_POINT('Ctrl Pts',(-0.0628876630232479,0.,1.));
#263=CARTESIAN_POINT('Ctrl Pts',(0.0628876630232479,0.,1.));
#264=CARTESIAN_POINT('Ctrl Pts',(0.129946362794795,-0.0125957149757416,
1.00024762406362));
#265=CARTESIAN_POINT('Ctrl Pts',(0.253169381573415,-0.0637039405308753,
0.998296436638969));
#266=CARTESIAN_POINT('Ctrl Pts',(0.309326762213266,-0.102219981026718,0.995766006138771));
#267=CARTESIAN_POINT('Ctrl Pts',(0.376962715693902,-0.169855934507355,0.985752995562419));
#268=CARTESIAN_POINT('Ctrl Pts',(0.398617258640348,-0.196250753500006,0.980987450041602));
#269=CARTESIAN_POINT('Ctrl Pts',(0.436115595703716,-0.253094125867659,0.967881242145242));
#270=CARTESIAN_POINT('Ctrl Pts',(0.451961518126292,-0.283537190866899,0.959522871916215));
#271=CARTESIAN_POINT('Ctrl Pts',(0.476826720195359,-0.345851950744619,0.938863102647857));
#272=CARTESIAN_POINT('Ctrl Pts',(0.485881967149867,-0.377795743141288,0.926525419332268));
#273=CARTESIAN_POINT('Ctrl Pts',(0.497463459870198,-0.440457809414131,0.898429682507346));
#274=CARTESIAN_POINT('Ctrl Pts',(0.5,-0.471172887120163,0.882668745165572));
#275=CARTESIAN_POINT('Ctrl Pts',(0.5,-0.5,0.866025403784439));
#276=CARTESIAN_POINT('Ctrl Pts',(0.5,-0.5,0.866025403784439));
#277=CARTESIAN_POINT('Ctrl Pts',(0.5,-0.565443624604121,0.828241509502505));
#278=CARTESIAN_POINT('Ctrl Pts',(0.486580902922002,-0.630245021066923,0.780293423064928));
#279=CARTESIAN_POINT('Ctrl Pts',(0.440965605518578,-0.743462718590307,0.673297663178363));
#280=CARTESIAN_POINT('Ctrl Pts',(0.40899290124387,-0.791999322000985,0.614282158113922));
#281=CARTESIAN_POINT('Ctrl Pts',(0.326975914030507,-0.885425449914742,0.47532872457473));
#282=CARTESIAN_POINT('Ctrl Pts',(0.265334799650218,-0.929816398978456,0.381461304041331));
#283=CARTESIAN_POINT('Ctrl Pts',(0.13380346272912,-0.987074351059553,0.189090930569144));
#284=CARTESIAN_POINT('Ctrl Pts',(0.0640173818993981,-1.,0.0905342497097466));
#285=CARTESIAN_POINT('Ctrl Pts',(0.,-1.,0.));
#286=CARTESIAN_POINT('',(0.5,-0.5,1.625));
#287=CARTESIAN_POINT('',(0.5,-0.5,1.625));
#288=CARTESIAN_POINT('Origin',(0.,-0.5,1.625));
#289=CARTESIAN_POINT('Origin',(-2.8047350061344E-17,-0.5,1.625));
#290=CARTESIAN_POINT('Origin',(2.0625,0.,0.));
#291=CARTESIAN_POINT('',(2.0625,0.935,1.14504475720278E-16));
#292=CARTESIAN_POINT('Origin',(2.0625,0.,0.));
#293=CARTESIAN_POINT('',(-2.0625,0.935,1.14504475720278E-16));
#294=CARTESIAN_POINT('',(2.0625,0.935,-1.14504475720278E-16));
#295=CARTESIAN_POINT('Origin',(-2.0625,0.,0.));
#296=CARTESIAN_POINT('Origin',(2.0625,0.,0.));
#297=CARTESIAN_POINT('',(-2.0625,1.,-1.22464679914735E-16));
#298=CARTESIAN_POINT('Origin',(-2.0625,0.,0.));
#299=CARTESIAN_POINT('',(2.0625,1.,1.22464679914735E-16));
#300=CARTESIAN_POINT('',(2.0625,1.,-1.22464679914735E-16));
#301=CARTESIAN_POINT('Origin',(2.0625,0.,0.));
#302=CARTESIAN_POINT('Origin',(2.0625,-5.6094700122688E-17,-2.29446550648967E-17));
#303=CARTESIAN_POINT('Origin',(-2.0625,0.,0.));
#304=UNCERTAINTY_MEASURE_WITH_UNIT(LENGTH_MEASURE(0.000393700787401575),
#309,'DISTANCE_ACCURACY_VALUE',
'Maximum model space distance between geometric entities at asserted c
onnectivities');
#305=UNCERTAINTY_MEASURE_WITH_UNIT(LENGTH_MEASURE(0.000393700787401575),
#309,'DISTANCE_ACCURACY_VALUE',
'Maximum model space distance between geometric entities at asserted c
onnectivities');
#306=(
GEOMETRIC_REPRESENTATION_CONTEXT(3)
GLOBAL_UNCERTAINTY_ASSIGNED_CONTEXT((#304))
GLOBAL_UNIT_ASSIGNED_CONTEXT((#309,#313,#314))
REPRESENTATION_CONTEXT('','3D')
);
#307=(
GEOMETRIC_REPRESENTATION_CONTEXT(3)
GLOBAL_UNCERTAINTY_ASSIGNED_CONTEXT((#305))
GLOBAL_UNIT_ASSIGNED_CONTEXT((#309,#313,#314))
REPRESENTATION_CONTEXT('','3D')
);
#308=DIMENSIONAL_EXPONENTS(1.,0.,0.,0.,0.,0.,0.);
#309=(
CONVERSION_BASED_UNIT('inch',#312)
LENGTH_UNIT()
NAMED_UNIT(#308)
);
#310=(
LENGTH_UNIT()
NAMED_UNIT(*)
SI_UNIT(.MILLI.,.METRE.)
);
#311=(
LENGTH_UNIT()
NAMED_UNIT(*)
SI_UNIT(.CENTI.,.METRE.)
);
#312=LENGTH_MEASURE_WITH_UNIT(LENGTH_MEASURE(25.4),#310);
#313=(
NAMED_UNIT(*)
PLANE_ANGLE_UNIT()
SI_UNIT($,.RADIAN.)
);
#314=(
NAMED_UNIT(*)
SI_UNIT($,.STERADIAN.)
SOLID_ANGLE_UNIT()
);
#315=SHAPE_DEFINITION_REPRESENTATION(#316,#317);
#316=PRODUCT_DEFINITION_SHAPE('',$,#319);
#317=SHAPE_REPRESENTATION('',(#142),#306);
#318=PRODUCT_DEFINITION_CONTEXT('part definition',#323,'design');
#319=PRODUCT_DEFINITION('7ERWWW-2X1','7ERWWW-2x1',#320,#318);
#320=PRODUCT_DEFINITION_FORMATION('',$,#325);
#321=PRODUCT_RELATED_PRODUCT_CATEGORY('7ERWWW-2x1','7ERWWW-2x1',(#325));
#322=APPLICATION_PROTOCOL_DEFINITION('international standard',
'automotive_design',2009,#323);
#323=APPLICATION_CONTEXT(
'Core Data for Automotive Mechanical Design Process');
#324=PRODUCT_CONTEXT('part definition',#323,'mechanical');
#325=PRODUCT('7ERWWW-2X1','7ERWWW-2x1',$,(#324));
#326=PRESENTATION_STYLE_ASSIGNMENT((#327));
#327=SURFACE_STYLE_USAGE(.BOTH.,#330);
#328=SURFACE_STYLE_RENDERING_WITH_PROPERTIES($,#334,(#329));
#329=SURFACE_STYLE_TRANSPARENT(0.);
#330=SURFACE_SIDE_STYLE('',(#331,#328));
#331=SURFACE_STYLE_FILL_AREA(#332);
#332=FILL_AREA_STYLE('',(#333));
#333=FILL_AREA_STYLE_COLOUR('',#334);
#334=COLOUR_RGB('',0.749019607843137,0.749019607843137,0.749019607843137);
ENDSEC;
END-ISO-10303-21;
