ISO-10303-21;
HEADER;
/* Generated by software containing ST-Developer
 * from STEP Tools, Inc. (www.steptools.com) 
 */

FILE_DESCRIPTION(
/* description */ (''),
/* implementation_level */ '2;1');

FILE_NAME(
/* name */ 
'W:\\AUTOCAD\\AutoCad - Projects\\Numbered\\7ERWWW\\7ERWWW\\7ERWWW-3X1.
5.stp',
/* time_stamp */ '2021-09-01T15:03:29-04:00',
/* author */ ('rick'),
/* organization */ (''),
/* preprocessor_version */ 'ST-DEVELOPER v18',
/* originating_system */ 'Autodesk Inventor 2020',
/* authorisation */ '');

FILE_SCHEMA (('AUTOMOTIVE_DESIGN { 1 0 10303 214 3 1 1 }'));
ENDSEC;

DATA;
#10=MECHANICAL_DESIGN_GEOMETRIC_PRESENTATION_REPRESENTATION('',(#13),#347);
#11=SHAPE_REPRESENTATION_RELATIONSHIP('SRR','None',#357,#12);
#12=ADVANCED_BREP_SHAPE_REPRESENTATION('',(#14),#346);
#13=STYLED_ITEM('',(#366),#14);
#14=MANIFOLD_SOLID_BREP('Solid1',#123);
#15=FACE_BOUND('',#33,.T.);
#16=FACE_BOUND('',#35,.T.);
#17=FACE_BOUND('',#37,.T.);
#18=FACE_BOUND('',#39,.T.);
#19=FACE_BOUND('',#41,.T.);
#20=PLANE('',#147);
#21=PLANE('',#154);
#22=PLANE('',#155);
#23=FACE_OUTER_BOUND('',#30,.T.);
#24=FACE_OUTER_BOUND('',#31,.T.);
#25=FACE_OUTER_BOUND('',#32,.T.);
#26=FACE_OUTER_BOUND('',#34,.T.);
#27=FACE_OUTER_BOUND('',#36,.T.);
#28=FACE_OUTER_BOUND('',#38,.T.);
#29=FACE_OUTER_BOUND('',#40,.T.);
#30=EDGE_LOOP('',(#84,#85,#86,#87,#88));
#31=EDGE_LOOP('',(#89,#90,#91,#92,#93));
#32=EDGE_LOOP('',(#94));
#33=EDGE_LOOP('',(#95));
#34=EDGE_LOOP('',(#96,#97,#98,#99));
#35=EDGE_LOOP('',(#100,#101));
#36=EDGE_LOOP('',(#102,#103,#104,#105));
#37=EDGE_LOOP('',(#106,#107));
#38=EDGE_LOOP('',(#108));
#39=EDGE_LOOP('',(#109));
#40=EDGE_LOOP('',(#110));
#41=EDGE_LOOP('',(#111));
#42=B_SPLINE_CURVE_WITH_KNOTS('',3,(#195,#196,#197,#198,#199,#200,#201,
#202,#203,#204,#205,#206,#207,#208,#209,#210),.UNSPECIFIED.,.F.,.F.,(4,
2,2,2,2,2,2,4),(0.,0.58776554988868,1.17553109977736,1.76329664966604,2.35106219955472,
3.15338638955731,3.5545484845586,3.9557105795599),.UNSPECIFIED.);
#43=B_SPLINE_CURVE_WITH_KNOTS('',3,(#211,#212,#213,#214,#215,#216,#217,
#218,#219,#220,#221,#222,#223,#224,#225,#226,#227,#228,#229,#230,#231,#232,
#233,#234,#235,#236,#237,#238,#239,#240,#241,#242,#243,#244,#245,#246,#247,
#248,#249,#250,#251,#252,#253,#254,#255,#256,#257,#258),.UNSPECIFIED.,.F.,
 .F.,(4,2,2,2,2,2,2,2,2,2,2,2,2,2,2,2,2,2,2,2,2,2,2,4),(3.9557105795599,
4.30761261312933,4.65951464669876,5.01141668026819,5.36331871383763,5.69079732180452,
6.01827592977142,6.34575453773831,6.67323314570521,7.0007117536721,7.328190361639,
7.65566896960589,7.98314757757279,8.33504961114222,8.68695164471165,9.03885367828108,
9.39075571185051,9.79191780685181,10.1930799018531,10.9954040918557,11.5831696417444,
12.170935191633,12.7587007415217,13.3464662914104),.UNSPECIFIED.);
#44=B_SPLINE_CURVE_WITH_KNOTS('',3,(#262,#263,#264,#265,#266,#267,#268,
#269,#270,#271,#272,#273,#274,#275,#276,#277,#278,#279,#280,#281,#282,#283,
#284,#285,#286,#287,#288,#289,#290,#291,#292,#293,#294,#295,#296,#297,#298,
#299,#300,#301,#302,#303,#304,#305,#306,#307,#308,#309),.UNSPECIFIED.,.F.,
 .F.,(4,2,2,2,2,2,2,2,2,2,2,2,2,2,2,2,2,2,2,2,2,2,2,4),(0.,0.633686961068856,
1.26737392213771,1.90106088320657,2.53474784427542,3.39848766756044,3.83035757920295,
4.26222749084546,4.64269427481817,5.02316105879088,5.40362784276359,5.7840946267363,
6.14349762091416,6.50290061509202,6.86230360926988,7.22170660344775,7.58110959762561,
7.94051259180347,8.29991558598133,8.65931858015919,9.03978536413191,9.42025214810461,
9.80071893207732,10.18118571605),.UNSPECIFIED.);
#45=B_SPLINE_CURVE_WITH_KNOTS('',3,(#310,#311,#312,#313,#314,#315,#316,
#317,#318,#319,#320,#321,#322,#323,#324,#325),.UNSPECIFIED.,.F.,.F.,(4,
2,2,2,2,2,2,4),(10.18118571605,10.6130556276925,11.0449255393351,11.9086653626201,
12.5423523236889,13.1760392847578,13.8097262458266,14.4434132068955),
 .UNSPECIFIED.);
#46=LINE('',#193,#50);
#47=LINE('',#327,#51);
#48=LINE('',#334,#52);
#49=LINE('',#340,#53);
#50=VECTOR('',#162,0.685);
#51=VECTOR('',#165,0.75);
#52=VECTOR('',#174,1.435);
#53=VECTOR('',#181,1.5);
#54=CIRCLE('',#144,0.685);
#55=CIRCLE('',#146,0.75);
#56=CIRCLE('',#149,1.435);
#57=CIRCLE('',#150,1.435);
#58=CIRCLE('',#152,1.5);
#59=CIRCLE('',#153,1.5);
#60=VERTEX_POINT('',#190);
#61=VERTEX_POINT('',#192);
#62=VERTEX_POINT('',#194);
#63=VERTEX_POINT('',#260);
#64=VERTEX_POINT('',#261);
#65=VERTEX_POINT('',#326);
#66=VERTEX_POINT('',#331);
#67=VERTEX_POINT('',#333);
#68=VERTEX_POINT('',#337);
#69=VERTEX_POINT('',#339);
#70=EDGE_CURVE('',#60,#60,#54,.T.);
#71=EDGE_CURVE('',#60,#61,#46,.T.);
#72=EDGE_CURVE('',#62,#61,#42,.T.);
#73=EDGE_CURVE('',#61,#62,#43,.T.);
#74=EDGE_CURVE('',#63,#64,#44,.T.);
#75=EDGE_CURVE('',#64,#63,#45,.T.);
#76=EDGE_CURVE('',#64,#65,#47,.T.);
#77=EDGE_CURVE('',#65,#65,#55,.T.);
#78=EDGE_CURVE('',#66,#66,#56,.T.);
#79=EDGE_CURVE('',#66,#67,#48,.T.);
#80=EDGE_CURVE('',#67,#67,#57,.T.);
#81=EDGE_CURVE('',#68,#68,#58,.T.);
#82=EDGE_CURVE('',#68,#69,#49,.T.);
#83=EDGE_CURVE('',#69,#69,#59,.T.);
#84=ORIENTED_EDGE('',*,*,#70,.F.);
#85=ORIENTED_EDGE('',*,*,#71,.T.);
#86=ORIENTED_EDGE('',*,*,#72,.F.);
#87=ORIENTED_EDGE('',*,*,#73,.F.);
#88=ORIENTED_EDGE('',*,*,#71,.F.);
#89=ORIENTED_EDGE('',*,*,#74,.F.);
#90=ORIENTED_EDGE('',*,*,#75,.F.);
#91=ORIENTED_EDGE('',*,*,#76,.T.);
#92=ORIENTED_EDGE('',*,*,#77,.T.);
#93=ORIENTED_EDGE('',*,*,#76,.F.);
#94=ORIENTED_EDGE('',*,*,#77,.F.);
#95=ORIENTED_EDGE('',*,*,#70,.T.);
#96=ORIENTED_EDGE('',*,*,#78,.F.);
#97=ORIENTED_EDGE('',*,*,#79,.T.);
#98=ORIENTED_EDGE('',*,*,#80,.F.);
#99=ORIENTED_EDGE('',*,*,#79,.F.);
#100=ORIENTED_EDGE('',*,*,#72,.T.);
#101=ORIENTED_EDGE('',*,*,#73,.T.);
#102=ORIENTED_EDGE('',*,*,#81,.F.);
#103=ORIENTED_EDGE('',*,*,#82,.T.);
#104=ORIENTED_EDGE('',*,*,#83,.T.);
#105=ORIENTED_EDGE('',*,*,#82,.F.);
#106=ORIENTED_EDGE('',*,*,#74,.T.);
#107=ORIENTED_EDGE('',*,*,#75,.T.);
#108=ORIENTED_EDGE('',*,*,#83,.F.);
#109=ORIENTED_EDGE('',*,*,#78,.T.);
#110=ORIENTED_EDGE('',*,*,#81,.T.);
#111=ORIENTED_EDGE('',*,*,#80,.T.);
#112=CYLINDRICAL_SURFACE('',#143,0.685);
#113=CYLINDRICAL_SURFACE('',#145,0.75);
#114=CYLINDRICAL_SURFACE('',#148,1.435);
#115=CYLINDRICAL_SURFACE('',#151,1.5);
#116=ADVANCED_FACE('',(#23),#112,.F.);
#117=ADVANCED_FACE('',(#24),#113,.T.);
#118=ADVANCED_FACE('',(#25,#15),#20,.T.);
#119=ADVANCED_FACE('',(#26,#16),#114,.F.);
#120=ADVANCED_FACE('',(#27,#17),#115,.T.);
#121=ADVANCED_FACE('',(#28,#18),#21,.T.);
#122=ADVANCED_FACE('',(#29,#19),#22,.F.);
#123=CLOSED_SHELL('',(#116,#117,#118,#119,#120,#121,#122));
#124=DERIVED_UNIT_ELEMENT(#126,1.);
#125=DERIVED_UNIT_ELEMENT(#351,3.);
#126=(
MASS_UNIT()
NAMED_UNIT(*)
SI_UNIT($,.GRAM.)
);
#127=DERIVED_UNIT((#124,#125));
#128=MEASURE_REPRESENTATION_ITEM('density measure',
POSITIVE_RATIO_MEASURE(1.),#127);
#129=PROPERTY_DEFINITION_REPRESENTATION(#134,#131);
#130=PROPERTY_DEFINITION_REPRESENTATION(#135,#132);
#131=REPRESENTATION('material name',(#133),#346);
#132=REPRESENTATION('density',(#128),#346);
#133=DESCRIPTIVE_REPRESENTATION_ITEM('Generic','Generic');
#134=PROPERTY_DEFINITION('material property','material name',#359);
#135=PROPERTY_DEFINITION('material property','density of part',#359);
#136=DATE_TIME_ROLE('creation_date');
#137=APPLIED_DATE_AND_TIME_ASSIGNMENT(#138,#136,(#359));
#138=DATE_AND_TIME(#139,#140);
#139=CALENDAR_DATE(2012,29,6);
#140=LOCAL_TIME(12,39,31.,#141);
#141=COORDINATED_UNIVERSAL_TIME_OFFSET(0,0,.BEHIND.);
#142=AXIS2_PLACEMENT_3D('placement',#188,#156,#157);
#143=AXIS2_PLACEMENT_3D('',#189,#158,#159);
#144=AXIS2_PLACEMENT_3D('',#191,#160,#161);
#145=AXIS2_PLACEMENT_3D('',#259,#163,#164);
#146=AXIS2_PLACEMENT_3D('',#328,#166,#167);
#147=AXIS2_PLACEMENT_3D('',#329,#168,#169);
#148=AXIS2_PLACEMENT_3D('',#330,#170,#171);
#149=AXIS2_PLACEMENT_3D('',#332,#172,#173);
#150=AXIS2_PLACEMENT_3D('',#335,#175,#176);
#151=AXIS2_PLACEMENT_3D('',#336,#177,#178);
#152=AXIS2_PLACEMENT_3D('',#338,#179,#180);
#153=AXIS2_PLACEMENT_3D('',#341,#182,#183);
#154=AXIS2_PLACEMENT_3D('',#342,#184,#185);
#155=AXIS2_PLACEMENT_3D('',#343,#186,#187);
#156=DIRECTION('axis',(0.,0.,1.));
#157=DIRECTION('refdir',(1.,0.,0.));
#158=DIRECTION('center_axis',(0.,0.,-1.));
#159=DIRECTION('ref_axis',(-1.,0.,0.));
#160=DIRECTION('center_axis',(0.,0.,-1.));
#161=DIRECTION('ref_axis',(-1.,0.,0.));
#162=DIRECTION('',(0.,0.,-1.));
#163=DIRECTION('center_axis',(0.,0.,-1.));
#164=DIRECTION('ref_axis',(-1.,0.,0.));
#165=DIRECTION('',(0.,0.,1.));
#166=DIRECTION('center_axis',(0.,0.,-1.));
#167=DIRECTION('ref_axis',(-1.,0.,0.));
#168=DIRECTION('center_axis',(0.,0.,1.));
#169=DIRECTION('ref_axis',(1.,0.,0.));
#170=DIRECTION('center_axis',(-1.,0.,0.));
#171=DIRECTION('ref_axis',(0.,-1.,0.));
#172=DIRECTION('center_axis',(-1.,0.,0.));
#173=DIRECTION('ref_axis',(0.,-1.,0.));
#174=DIRECTION('',(-1.,0.,0.));
#175=DIRECTION('center_axis',(1.,0.,0.));
#176=DIRECTION('ref_axis',(0.,-1.,0.));
#177=DIRECTION('center_axis',(-1.,0.,0.));
#178=DIRECTION('ref_axis',(0.,-1.,0.));
#179=DIRECTION('center_axis',(-1.,0.,0.));
#180=DIRECTION('ref_axis',(0.,-1.,0.));
#181=DIRECTION('',(1.,0.,0.));
#182=DIRECTION('center_axis',(-1.,0.,0.));
#183=DIRECTION('ref_axis',(0.,-1.,0.));
#184=DIRECTION('center_axis',(1.,0.,0.));
#185=DIRECTION('ref_axis',(0.,0.,-1.));
#186=DIRECTION('center_axis',(1.,0.,0.));
#187=DIRECTION('ref_axis',(0.,0.,-1.));
#188=CARTESIAN_POINT('',(0.,0.,0.));
#189=CARTESIAN_POINT('Origin',(0.,-0.75,2.406));
#190=CARTESIAN_POINT('',(0.685,-0.75,2.406));
#191=CARTESIAN_POINT('Origin',(0.,-0.75,2.406));
#192=CARTESIAN_POINT('',(0.685,-0.75,1.2234071276562));
#193=CARTESIAN_POINT('',(0.685,-0.75,2.406));
#194=CARTESIAN_POINT('',(0.,-1.435,-3.49676543189026E-16));
#195=CARTESIAN_POINT('Ctrl Pts',(0.,-1.435,0.));
#196=CARTESIAN_POINT('Ctrl Pts',(0.0438456498787341,-1.435,0.0634610387292641));
#197=CARTESIAN_POINT('Ctrl Pts',(0.0896703664509012,-1.43073447646592,0.129770096067111));
#198=CARTESIAN_POINT('Ctrl Pts',(0.181933825540078,-1.41207271851514,0.264371061595807));
#199=CARTESIAN_POINT('Ctrl Pts',(0.228368960064287,-1.3976780148238,0.332665655103795));
#200=CARTESIAN_POINT('Ctrl Pts',(0.318469262776604,-1.35845412712671,0.467731506377833));
#201=CARTESIAN_POINT('Ctrl Pts',(0.362154278216049,-1.33361195221678,0.534540848787163));
#202=CARTESIAN_POINT('Ctrl Pts',(0.443573651380708,-1.27440542285805,0.663434681558836));
#203=CARTESIAN_POINT('Ctrl Pts',(0.481299225450248,-1.24003269247186,0.725520872638751));
#204=CARTESIAN_POINT('Ctrl Pts',(0.56020550017081,-1.15019677478101,0.863298688349504));
#205=CARTESIAN_POINT('Ctrl Pts',(0.604021995140261,-1.08373242057064,0.946881239699488));
#206=CARTESIAN_POINT('Ctrl Pts',(0.650936910391909,-0.967381801694972,1.06129932174742));
#207=CARTESIAN_POINT('Ctrl Pts',(0.663491892069252,-0.92588562253113,1.09770336703213));
#208=CARTESIAN_POINT('Ctrl Pts',(0.680530869751892,-0.839638040645367,1.16499992654479));
#209=CARTESIAN_POINT('Ctrl Pts',(0.685,-0.79488322188721,1.19589182579598));
#210=CARTESIAN_POINT('Ctrl Pts',(0.685,-0.75,1.2234071276562));
#211=CARTESIAN_POINT('Ctrl Pts',(0.685,-0.75,1.2234071276562));
#212=CARTESIAN_POINT('Ctrl Pts',(0.685,-0.710628141960405,1.24754373178591));
#213=CARTESIAN_POINT('Ctrl Pts',(0.681547364307388,-0.668616412055499,1.27061085344806));
#214=CARTESIAN_POINT('Ctrl Pts',(0.665706045465317,-0.582770937711616,1.31220344511133));
#215=CARTESIAN_POINT('Ctrl Pts',(0.653302427959937,-0.538941626327978,1.33073237520413));
#216=CARTESIAN_POINT('Ctrl Pts',(0.619135800103577,-0.453317341488521,1.36228120455887));
#217=CARTESIAN_POINT('Ctrl Pts',(0.597323079985773,-0.411425942711568,1.37535337766925));
#218=CARTESIAN_POINT('Ctrl Pts',(0.54556878377448,-0.333128369134337,1.39638594570004));
#219=CARTESIAN_POINT('Ctrl Pts',(0.515623933944653,-0.296730742846783,1.40437010071475));
#220=CARTESIAN_POINT('Ctrl Pts',(0.452970061884587,-0.234385483006727,1.41605907842935));
#221=CARTESIAN_POINT('Ctrl Pts',(0.418795939257092,-0.206081159315436,1.42034857785244));
#222=CARTESIAN_POINT('Ctrl Pts',(0.344275538520274,-0.15610430403869,1.42670633734237));
#223=CARTESIAN_POINT('Ctrl Pts',(0.303932225555955,-0.134430115760093,1.42879631051927));
#224=CARTESIAN_POINT('Ctrl Pts',(0.219723676309787,-0.0995981245070141,
1.43164609980078));
#225=CARTESIAN_POINT('Ctrl Pts',(0.175790155073454,-0.0864111845248915,
1.43242212934088));
#226=CARTESIAN_POINT('Ctrl Pts',(0.0874167290798846,-0.0691104273504458,
1.43336101462513));
#227=CARTESIAN_POINT('Ctrl Pts',(0.0429761952712461,-0.065,1.43352711868315));
#228=CARTESIAN_POINT('Ctrl Pts',(-0.042976195271246,-0.065,1.43352711868315));
#229=CARTESIAN_POINT('Ctrl Pts',(-0.0874167290798844,-0.0691104273504459,
1.43336101462513));
#230=CARTESIAN_POINT('Ctrl Pts',(-0.175790155073454,-0.0864111845248915,
1.43242212934088));
#231=CARTESIAN_POINT('Ctrl Pts',(-0.219723676309786,-0.099598124507014,
1.43164609980078));
#232=CARTESIAN_POINT('Ctrl Pts',(-0.303932225555955,-0.134430115760092,
1.42879631051927));
#233=CARTESIAN_POINT('Ctrl Pts',(-0.344275538520274,-0.156104304038689,
1.42670633734237));
#234=CARTESIAN_POINT('Ctrl Pts',(-0.418795939257091,-0.206081159315435,
1.42034857785244));
#235=CARTESIAN_POINT('Ctrl Pts',(-0.452970061884586,-0.234385483006727,
1.41605907842935));
#236=CARTESIAN_POINT('Ctrl Pts',(-0.515623933944653,-0.296730742846783,
1.40437010071475));
#237=CARTESIAN_POINT('Ctrl Pts',(-0.54556878377448,-0.333128369134337,1.39638594570004));
#238=CARTESIAN_POINT('Ctrl Pts',(-0.597323079985773,-0.411425942711567,
1.37535337766925));
#239=CARTESIAN_POINT('Ctrl Pts',(-0.619135800103577,-0.453317341488521,
1.36228120455887));
#240=CARTESIAN_POINT('Ctrl Pts',(-0.653302427959937,-0.538941626327978,
1.33073237520413));
#241=CARTESIAN_POINT('Ctrl Pts',(-0.665706045465317,-0.582770937711616,
1.31220344511133));
#242=CARTESIAN_POINT('Ctrl Pts',(-0.681547364307388,-0.668616412055499,
1.27061085344806));
#243=CARTESIAN_POINT('Ctrl Pts',(-0.685,-0.710628141960405,1.24754373178591));
#244=CARTESIAN_POINT('Ctrl Pts',(-0.685,-0.79488322188721,1.19589182579598));
#245=CARTESIAN_POINT('Ctrl Pts',(-0.680530869751892,-0.839638040645367,
1.16499992654479));
#246=CARTESIAN_POINT('Ctrl Pts',(-0.663491892069252,-0.92588562253113,1.09770336703213));
#247=CARTESIAN_POINT('Ctrl Pts',(-0.650936910391909,-0.967381801694972,
1.06129932174742));
#248=CARTESIAN_POINT('Ctrl Pts',(-0.604021995140262,-1.08373242057064,0.946881239699488));
#249=CARTESIAN_POINT('Ctrl Pts',(-0.56020550017081,-1.15019677478101,0.863298688349505));
#250=CARTESIAN_POINT('Ctrl Pts',(-0.481299225450248,-1.24003269247186,0.725520872638752));
#251=CARTESIAN_POINT('Ctrl Pts',(-0.443573651380708,-1.27440542285805,0.663434681558837));
#252=CARTESIAN_POINT('Ctrl Pts',(-0.362154278216049,-1.33361195221678,0.534540848787164));
#253=CARTESIAN_POINT('Ctrl Pts',(-0.318469262776604,-1.35845412712671,0.467731506377833));
#254=CARTESIAN_POINT('Ctrl Pts',(-0.228368960064287,-1.3976780148238,0.332665655103795));
#255=CARTESIAN_POINT('Ctrl Pts',(-0.181933825540078,-1.41207271851514,0.264371061595808));
#256=CARTESIAN_POINT('Ctrl Pts',(-0.0896703664509013,-1.43073447646592,
0.129770096067111));
#257=CARTESIAN_POINT('Ctrl Pts',(-0.0438456498787342,-1.435,0.0634610387292642));
#258=CARTESIAN_POINT('Ctrl Pts',(0.,-1.435,0.));
#259=CARTESIAN_POINT('Origin',(0.,-0.75,2.406));
#260=CARTESIAN_POINT('',(0.,-1.5,0.));
#261=CARTESIAN_POINT('',(0.75,-0.75,1.29903810567666));
#262=CARTESIAN_POINT('Ctrl Pts',(0.,-1.5,0.));
#263=CARTESIAN_POINT('Ctrl Pts',(-0.0480130364245486,-1.5,0.06790068728231));
#264=CARTESIAN_POINT('Ctrl Pts',(-0.098185003489183,-1.49532866440831,0.138837776627718));
#265=CARTESIAN_POINT('Ctrl Pts',(-0.199195002987876,-1.47489755347372,0.282773673176716));
#266=CARTESIAN_POINT('Ctrl Pts',(-0.250029445439092,-1.45913979455892,0.355775285905787));
#267=CARTESIAN_POINT('Ctrl Pts',(-0.348677948129916,-1.4161963304981,0.500053066009927));
#268=CARTESIAN_POINT('Ctrl Pts',(-0.396514697811114,-1.38899642221044,0.57137053089559));
#269=CARTESIAN_POINT('Ctrl Pts',(-0.485702975067212,-1.32413670224918,0.708828144685666));
#270=CARTESIAN_POINT('Ctrl Pts',(-0.527045514443413,-1.28646776717385,0.774969820308625));
#271=CARTESIAN_POINT('Ctrl Pts',(-0.613489351865805,-1.18799898300148,0.921423237170883));
#272=CARTESIAN_POINT('Ctrl Pts',(-0.661448408277867,-1.11519407788546,1.00994649476754));
#273=CARTESIAN_POINT('Ctrl Pts',(-0.712765617856719,-0.987824168171654,
1.13031672463993));
#274=CARTESIAN_POINT('Ctrl Pts',(-0.726493278004922,-0.942407401596015,
1.16847181955773));
#275=CARTESIAN_POINT('Ctrl Pts',(-0.745118460641198,-0.848038618653779,
1.23866404045759));
#276=CARTESIAN_POINT('Ctrl Pts',(-0.75,-0.799082718453091,1.27070018496521));
#277=CARTESIAN_POINT('Ctrl Pts',(-0.75,-0.706759330680245,1.32400311774836));
#278=CARTESIAN_POINT('Ctrl Pts',(-0.746195189805297,-0.660686714121197,
1.34764452376102));
#279=CARTESIAN_POINT('Ctrl Pts',(-0.7288229507248,-0.566693614711933,1.3897881289984));
#280=CARTESIAN_POINT('Ctrl Pts',(-0.715240080293039,-0.518777926116929,
1.40829465397179));
#281=CARTESIAN_POINT('Ctrl Pts',(-0.677942277189438,-0.425305786300349,
1.43928430787432));
#282=CARTESIAN_POINT('Ctrl Pts',(-0.654173393555574,-0.379641188801488,
1.45182186321786));
#283=CARTESIAN_POINT('Ctrl Pts',(-0.597925887960523,-0.29437613025001,1.4714811750624));
#284=CARTESIAN_POINT('Ctrl Pts',(-0.565444073540853,-0.254783901761032,
1.47862949334363));
#285=CARTESIAN_POINT('Ctrl Pts',(-0.497160114604905,-0.186499942825084,
1.48873843641067));
#286=CARTESIAN_POINT('Ctrl Pts',(-0.459634091171191,-0.1553005808622,1.49219468993076));
#287=CARTESIAN_POINT('Ctrl Pts',(-0.377825236402366,-0.100246979443922,
1.49690140160286));
#288=CARTESIAN_POINT('Ctrl Pts',(-0.33354544031814,-0.0763903262131378,
1.4981763502427));
#289=CARTESIAN_POINT('Ctrl Pts',(-0.241128176234175,-0.0380591570467876,
1.49963974081118));
#290=CARTESIAN_POINT('Ctrl Pts',(-0.192915971988641,-0.023552962607898,
1.49984526396141));
#291=CARTESIAN_POINT('Ctrl Pts',(-0.0959351399807257,-0.00452141593086106,
1.50002337137409));
#292=CARTESIAN_POINT('Ctrl Pts',(-0.047165747267436,0.,1.5));
#293=CARTESIAN_POINT('Ctrl Pts',(0.0471657472674359,0.,1.5));
#294=CARTESIAN_POINT('Ctrl Pts',(0.0959351399807256,-0.00452141593086106,
1.50002337137409));
#295=CARTESIAN_POINT('Ctrl Pts',(0.192915971988641,-0.023552962607898,1.49984526396141));
#296=CARTESIAN_POINT('Ctrl Pts',(0.241128176234175,-0.0380591570467875,
1.49963974081118));
#297=CARTESIAN_POINT('Ctrl Pts',(0.33354544031814,-0.0763903262131377,1.4981763502427));
#298=CARTESIAN_POINT('Ctrl Pts',(0.377825236402366,-0.100246979443922,1.49690140160287));
#299=CARTESIAN_POINT('Ctrl Pts',(0.459634091171191,-0.155300580862199,1.49219468993076));
#300=CARTESIAN_POINT('Ctrl Pts',(0.497160114604904,-0.186499942825083,1.48873843641067));
#301=CARTESIAN_POINT('Ctrl Pts',(0.565444073540853,-0.254783901761032,1.47862949334363));
#302=CARTESIAN_POINT('Ctrl Pts',(0.597925887960523,-0.29437613025001,1.4714811750624));
#303=CARTESIAN_POINT('Ctrl Pts',(0.654173393555574,-0.379641188801488,1.45182186321786));
#304=CARTESIAN_POINT('Ctrl Pts',(0.677942277189439,-0.425305786300349,1.43928430787432));
#305=CARTESIAN_POINT('Ctrl Pts',(0.715240080293039,-0.518777926116929,1.40829465397179));
#306=CARTESIAN_POINT('Ctrl Pts',(0.7288229507248,-0.566693614711932,1.3897881289984));
#307=CARTESIAN_POINT('Ctrl Pts',(0.746195189805297,-0.660686714121197,1.34764452376102));
#308=CARTESIAN_POINT('Ctrl Pts',(0.75,-0.706759330680245,1.32400311774836));
#309=CARTESIAN_POINT('Ctrl Pts',(0.75,-0.75,1.29903810567666));
#310=CARTESIAN_POINT('Ctrl Pts',(0.75,-0.75,1.29903810567666));
#311=CARTESIAN_POINT('Ctrl Pts',(0.75,-0.799082718453091,1.27070018496521));
#312=CARTESIAN_POINT('Ctrl Pts',(0.745118460641198,-0.848038618653778,1.23866404045759));
#313=CARTESIAN_POINT('Ctrl Pts',(0.726493278004922,-0.942407401596014,1.16847181955773));
#314=CARTESIAN_POINT('Ctrl Pts',(0.712765617856719,-0.987824168171654,1.13031672463993));
#315=CARTESIAN_POINT('Ctrl Pts',(0.661448408277867,-1.11519407788546,1.00994649476754));
#316=CARTESIAN_POINT('Ctrl Pts',(0.613489351865805,-1.18799898300148,0.921423237170883));
#317=CARTESIAN_POINT('Ctrl Pts',(0.527045514443413,-1.28646776717385,0.774969820308625));
#318=CARTESIAN_POINT('Ctrl Pts',(0.485702975067212,-1.32413670224918,0.708828144685666));
#319=CARTESIAN_POINT('Ctrl Pts',(0.396514697811114,-1.38899642221044,0.57137053089559));
#320=CARTESIAN_POINT('Ctrl Pts',(0.348677948129916,-1.4161963304981,0.500053066009927));
#321=CARTESIAN_POINT('Ctrl Pts',(0.250029445439092,-1.45913979455892,0.355775285905787));
#322=CARTESIAN_POINT('Ctrl Pts',(0.199195002987876,-1.47489755347372,0.282773673176717));
#323=CARTESIAN_POINT('Ctrl Pts',(0.0981850034891833,-1.49532866440831,0.138837776627718));
#324=CARTESIAN_POINT('Ctrl Pts',(0.0480130364245486,-1.5,0.0679006872823101));
#325=CARTESIAN_POINT('Ctrl Pts',(0.,-1.5,0.));
#326=CARTESIAN_POINT('',(0.75,-0.75,2.406));
#327=CARTESIAN_POINT('',(0.75,-0.75,2.406));
#328=CARTESIAN_POINT('Origin',(0.,-0.75,2.406));
#329=CARTESIAN_POINT('Origin',(-3.82469159145332E-17,-0.75,2.406));
#330=CARTESIAN_POINT('Origin',(2.594,0.,0.));
#331=CARTESIAN_POINT('',(2.594,1.435,1.75736815677645E-16));
#332=CARTESIAN_POINT('Origin',(2.594,0.,0.));
#333=CARTESIAN_POINT('',(-2.594,1.435,1.75736815677645E-16));
#334=CARTESIAN_POINT('',(2.594,1.435,-1.75736815677645E-16));
#335=CARTESIAN_POINT('Origin',(-2.594,0.,0.));
#336=CARTESIAN_POINT('Origin',(2.594,0.,0.));
#337=CARTESIAN_POINT('',(-2.594,1.5,-1.83697019872103E-16));
#338=CARTESIAN_POINT('Origin',(-2.594,0.,0.));
#339=CARTESIAN_POINT('',(2.594,1.5,1.83697019872103E-16));
#340=CARTESIAN_POINT('',(2.594,1.5,-1.83697019872103E-16));
#341=CARTESIAN_POINT('Origin',(2.594,0.,0.));
#342=CARTESIAN_POINT('Origin',(2.594,-7.64938318290664E-17,3.05928734198623E-17));
#343=CARTESIAN_POINT('Origin',(-2.594,0.,0.));
#344=UNCERTAINTY_MEASURE_WITH_UNIT(LENGTH_MEASURE(0.000393700787401575),
#349,'DISTANCE_ACCURACY_VALUE',
'Maximum model space distance between geometric entities at asserted c
onnectivities');
#345=UNCERTAINTY_MEASURE_WITH_UNIT(LENGTH_MEASURE(0.000393700787401575),
#349,'DISTANCE_ACCURACY_VALUE',
'Maximum model space distance between geometric entities at asserted c
onnectivities');
#346=(
GEOMETRIC_REPRESENTATION_CONTEXT(3)
GLOBAL_UNCERTAINTY_ASSIGNED_CONTEXT((#344))
GLOBAL_UNIT_ASSIGNED_CONTEXT((#349,#353,#354))
REPRESENTATION_CONTEXT('','3D')
);
#347=(
GEOMETRIC_REPRESENTATION_CONTEXT(3)
GLOBAL_UNCERTAINTY_ASSIGNED_CONTEXT((#345))
GLOBAL_UNIT_ASSIGNED_CONTEXT((#349,#353,#354))
REPRESENTATION_CONTEXT('','3D')
);
#348=DIMENSIONAL_EXPONENTS(1.,0.,0.,0.,0.,0.,0.);
#349=(
CONVERSION_BASED_UNIT('inch',#352)
LENGTH_UNIT()
NAMED_UNIT(#348)
);
#350=(
LENGTH_UNIT()
NAMED_UNIT(*)
SI_UNIT(.MILLI.,.METRE.)
);
#351=(
LENGTH_UNIT()
NAMED_UNIT(*)
SI_UNIT(.CENTI.,.METRE.)
);
#352=LENGTH_MEASURE_WITH_UNIT(LENGTH_MEASURE(25.4),#350);
#353=(
NAMED_UNIT(*)
PLANE_ANGLE_UNIT()
SI_UNIT($,.RADIAN.)
);
#354=(
NAMED_UNIT(*)
SI_UNIT($,.STERADIAN.)
SOLID_ANGLE_UNIT()
);
#355=SHAPE_DEFINITION_REPRESENTATION(#356,#357);
#356=PRODUCT_DEFINITION_SHAPE('',$,#359);
#357=SHAPE_REPRESENTATION('',(#142),#346);
#358=PRODUCT_DEFINITION_CONTEXT('part definition',#363,'design');
#359=PRODUCT_DEFINITION('7ERWWW-3X1.5','7ERWWW-3X1.5',#360,#358);
#360=PRODUCT_DEFINITION_FORMATION('',$,#365);
#361=PRODUCT_RELATED_PRODUCT_CATEGORY('7ERWWW-3X1.5','7ERWWW-3X1.5',(#365));
#362=APPLICATION_PROTOCOL_DEFINITION('international standard',
'automotive_design',2009,#363);
#363=APPLICATION_CONTEXT(
'Core Data for Automotive Mechanical Design Process');
#364=PRODUCT_CONTEXT('part definition',#363,'mechanical');
#365=PRODUCT('7ERWWW-3X1.5','7ERWWW-3X1.5',$,(#364));
#366=PRESENTATION_STYLE_ASSIGNMENT((#367));
#367=SURFACE_STYLE_USAGE(.BOTH.,#370);
#368=SURFACE_STYLE_RENDERING_WITH_PROPERTIES($,#374,(#369));
#369=SURFACE_STYLE_TRANSPARENT(0.);
#370=SURFACE_SIDE_STYLE('',(#371,#368));
#371=SURFACE_STYLE_FILL_AREA(#372);
#372=FILL_AREA_STYLE('',(#373));
#373=FILL_AREA_STYLE_COLOUR('',#374);
#374=COLOUR_RGB('',0.749019607843137,0.749019607843137,0.749019607843137);
ENDSEC;
END-ISO-10303-21;
