ISO-10303-21;
HEADER;
/* Generated by software containing ST-Developer
 * from STEP Tools, Inc. (www.steptools.com) 
 */

FILE_DESCRIPTION(
/* description */ (''),
/* implementation_level */ '2;1');

FILE_NAME(
/* name */ 
'W:\\AUTOCAD\\AutoCad - Projects\\Numbered\\7ERWWW\\7ERWWW\\7ERWWW-3X2.
5.stp',
/* time_stamp */ '2021-09-01T15:03:36-04:00',
/* author */ ('rick'),
/* organization */ (''),
/* preprocessor_version */ 'ST-DEVELOPER v18',
/* originating_system */ 'Autodesk Inventor 2020',
/* authorisation */ '');

FILE_SCHEMA (('AUTOMOTIVE_DESIGN { 1 0 10303 214 3 1 1 }'));
ENDSEC;

DATA;
#10=MECHANICAL_DESIGN_GEOMETRIC_PRESENTATION_REPRESENTATION('',(#13),#355);
#11=SHAPE_REPRESENTATION_RELATIONSHIP('SRR','None',#365,#12);
#12=ADVANCED_BREP_SHAPE_REPRESENTATION('',(#14),#354);
#13=STYLED_ITEM('',(#374),#14);
#14=MANIFOLD_SOLID_BREP('Solid1',#123);
#15=FACE_BOUND('',#33,.T.);
#16=FACE_BOUND('',#35,.T.);
#17=FACE_BOUND('',#37,.T.);
#18=FACE_BOUND('',#39,.T.);
#19=FACE_BOUND('',#41,.T.);
#20=PLANE('',#147);
#21=PLANE('',#154);
#22=PLANE('',#155);
#23=FACE_OUTER_BOUND('',#30,.T.);
#24=FACE_OUTER_BOUND('',#31,.T.);
#25=FACE_OUTER_BOUND('',#32,.T.);
#26=FACE_OUTER_BOUND('',#34,.T.);
#27=FACE_OUTER_BOUND('',#36,.T.);
#28=FACE_OUTER_BOUND('',#38,.T.);
#29=FACE_OUTER_BOUND('',#40,.T.);
#30=EDGE_LOOP('',(#84,#85,#86,#87,#88));
#31=EDGE_LOOP('',(#89,#90,#91,#92,#93));
#32=EDGE_LOOP('',(#94));
#33=EDGE_LOOP('',(#95));
#34=EDGE_LOOP('',(#96,#97,#98,#99));
#35=EDGE_LOOP('',(#100,#101));
#36=EDGE_LOOP('',(#102,#103,#104,#105));
#37=EDGE_LOOP('',(#106,#107));
#38=EDGE_LOOP('',(#108));
#39=EDGE_LOOP('',(#109));
#40=EDGE_LOOP('',(#110));
#41=EDGE_LOOP('',(#111));
#42=B_SPLINE_CURVE_WITH_KNOTS('',3,(#195,#196,#197,#198,#199,#200,#201,
#202,#203,#204,#205,#206,#207,#208,#209,#210,#211,#212),.UNSPECIFIED.,.F.,
 .F.,(4,2,2,2,2,2,2,2,4),(0.,0.8607777361751,1.7215554723502,2.5823332085253,
3.4431109447004,4.02672133966475,4.61033173462909,5.19394212959344,5.77755252455778),
 .UNSPECIFIED.);
#43=B_SPLINE_CURVE_WITH_KNOTS('',3,(#213,#214,#215,#216,#217,#218,#219,
#220,#221,#222,#223,#224,#225,#226,#227,#228,#229,#230,#231,#232,#233,#234,
#235,#236,#237,#238,#239,#240,#241,#242,#243,#244,#245,#246,#247,#248,#249,
#250,#251,#252,#253,#254,#255,#256,#257,#258,#259,#260,#261,#262),
 .UNSPECIFIED.,.F.,.F.,(4,2,2,2,2,2,2,2,2,2,2,2,2,2,2,2,2,2,2,2,2,2,2,2,
4),(5.77755252455778,6.34927453645549,6.9209965483532,7.4927185602509,8.06444057214861,
8.66350615188449,9.26257173162037,9.86163731135626,10.4607028910921,11.059768470828,
11.6588340505639,12.2578996302998,12.8569652100357,13.4286872219334,14.0004092338311,
14.5721312457288,15.1438532576265,15.7274636525908,16.3110740475552,16.8946844425195,
17.4782948374839,18.339072573659,19.1998503098341,20.0606280460092,20.9214057821843),
 .UNSPECIFIED.);
#44=B_SPLINE_CURVE_WITH_KNOTS('',3,(#266,#267,#268,#269,#270,#271,#272,
#273,#274,#275,#276,#277,#278,#279,#280,#281,#282,#283,#284,#285,#286,#287,
#288,#289,#290,#291,#292,#293,#294,#295,#296,#297,#298,#299,#300,#301,#302,
#303,#304,#305,#306,#307,#308,#309,#310,#311,#312,#313,#314,#315),
 .UNSPECIFIED.,.F.,.F.,(4,2,2,2,2,2,2,2,2,2,2,2,2,2,2,2,2,2,2,2,2,2,2,2,
4),(0.,0.905758239928602,1.8115164798572,2.7172747197858,3.62303295971441,
4.23727431238679,4.85151566505918,5.46575701773157,6.07999837040396,6.68406645273173,
7.28813453505951,7.89220261738728,8.49627069971506,9.12990444403972,9.76353818836438,
10.397171932689,11.0308056770137,11.6644394213384,12.298073165663,12.9317069099877,
13.5653406543124,14.1694087366401,14.7734768189679,15.3775449012957,15.9816129836235),
 .UNSPECIFIED.);
#45=B_SPLINE_CURVE_WITH_KNOTS('',3,(#316,#317,#318,#319,#320,#321,#322,
#323,#324,#325,#326,#327,#328,#329,#330,#331,#332,#333),.UNSPECIFIED.,.F.,
 .F.,(4,2,2,2,2,2,2,2,4),(15.9816129836235,16.5958543362958,17.2100956889682,
17.8243370416406,18.438578394313,19.3443366342416,20.2500948741702,21.1558531140988,
22.0616113540274),.UNSPECIFIED.);
#46=LINE('',#193,#50);
#47=LINE('',#335,#51);
#48=LINE('',#342,#52);
#49=LINE('',#348,#53);
#50=VECTOR('',#162,1.185);
#51=VECTOR('',#165,1.25);
#52=VECTOR('',#174,1.435);
#53=VECTOR('',#181,1.5);
#54=CIRCLE('',#144,1.185);
#55=CIRCLE('',#146,1.25);
#56=CIRCLE('',#149,1.435);
#57=CIRCLE('',#150,1.435);
#58=CIRCLE('',#152,1.5);
#59=CIRCLE('',#153,1.5);
#60=VERTEX_POINT('',#190);
#61=VERTEX_POINT('',#192);
#62=VERTEX_POINT('',#194);
#63=VERTEX_POINT('',#264);
#64=VERTEX_POINT('',#265);
#65=VERTEX_POINT('',#334);
#66=VERTEX_POINT('',#339);
#67=VERTEX_POINT('',#341);
#68=VERTEX_POINT('',#345);
#69=VERTEX_POINT('',#347);
#70=EDGE_CURVE('',#60,#60,#54,.T.);
#71=EDGE_CURVE('',#60,#61,#46,.T.);
#72=EDGE_CURVE('',#62,#61,#42,.T.);
#73=EDGE_CURVE('',#61,#62,#43,.T.);
#74=EDGE_CURVE('',#63,#64,#44,.T.);
#75=EDGE_CURVE('',#64,#63,#45,.T.);
#76=EDGE_CURVE('',#64,#65,#47,.T.);
#77=EDGE_CURVE('',#65,#65,#55,.T.);
#78=EDGE_CURVE('',#66,#66,#56,.T.);
#79=EDGE_CURVE('',#66,#67,#48,.T.);
#80=EDGE_CURVE('',#67,#67,#57,.T.);
#81=EDGE_CURVE('',#68,#68,#58,.T.);
#82=EDGE_CURVE('',#68,#69,#49,.T.);
#83=EDGE_CURVE('',#69,#69,#59,.T.);
#84=ORIENTED_EDGE('',*,*,#70,.F.);
#85=ORIENTED_EDGE('',*,*,#71,.T.);
#86=ORIENTED_EDGE('',*,*,#72,.F.);
#87=ORIENTED_EDGE('',*,*,#73,.F.);
#88=ORIENTED_EDGE('',*,*,#71,.F.);
#89=ORIENTED_EDGE('',*,*,#74,.F.);
#90=ORIENTED_EDGE('',*,*,#75,.F.);
#91=ORIENTED_EDGE('',*,*,#76,.T.);
#92=ORIENTED_EDGE('',*,*,#77,.T.);
#93=ORIENTED_EDGE('',*,*,#76,.F.);
#94=ORIENTED_EDGE('',*,*,#77,.F.);
#95=ORIENTED_EDGE('',*,*,#70,.T.);
#96=ORIENTED_EDGE('',*,*,#78,.F.);
#97=ORIENTED_EDGE('',*,*,#79,.T.);
#98=ORIENTED_EDGE('',*,*,#80,.F.);
#99=ORIENTED_EDGE('',*,*,#79,.F.);
#100=ORIENTED_EDGE('',*,*,#72,.T.);
#101=ORIENTED_EDGE('',*,*,#73,.T.);
#102=ORIENTED_EDGE('',*,*,#81,.F.);
#103=ORIENTED_EDGE('',*,*,#82,.T.);
#104=ORIENTED_EDGE('',*,*,#83,.T.);
#105=ORIENTED_EDGE('',*,*,#82,.F.);
#106=ORIENTED_EDGE('',*,*,#74,.T.);
#107=ORIENTED_EDGE('',*,*,#75,.T.);
#108=ORIENTED_EDGE('',*,*,#83,.F.);
#109=ORIENTED_EDGE('',*,*,#78,.T.);
#110=ORIENTED_EDGE('',*,*,#81,.T.);
#111=ORIENTED_EDGE('',*,*,#80,.T.);
#112=CYLINDRICAL_SURFACE('',#143,1.185);
#113=CYLINDRICAL_SURFACE('',#145,1.25);
#114=CYLINDRICAL_SURFACE('',#148,1.435);
#115=CYLINDRICAL_SURFACE('',#151,1.5);
#116=ADVANCED_FACE('',(#23),#112,.F.);
#117=ADVANCED_FACE('',(#24),#113,.T.);
#118=ADVANCED_FACE('',(#25,#15),#20,.T.);
#119=ADVANCED_FACE('',(#26,#16),#114,.F.);
#120=ADVANCED_FACE('',(#27,#17),#115,.T.);
#121=ADVANCED_FACE('',(#28,#18),#21,.T.);
#122=ADVANCED_FACE('',(#29,#19),#22,.F.);
#123=CLOSED_SHELL('',(#116,#117,#118,#119,#120,#121,#122));
#124=DERIVED_UNIT_ELEMENT(#126,1.);
#125=DERIVED_UNIT_ELEMENT(#359,3.);
#126=(
MASS_UNIT()
NAMED_UNIT(*)
SI_UNIT($,.GRAM.)
);
#127=DERIVED_UNIT((#124,#125));
#128=MEASURE_REPRESENTATION_ITEM('density measure',
POSITIVE_RATIO_MEASURE(1.),#127);
#129=PROPERTY_DEFINITION_REPRESENTATION(#134,#131);
#130=PROPERTY_DEFINITION_REPRESENTATION(#135,#132);
#131=REPRESENTATION('material name',(#133),#354);
#132=REPRESENTATION('density',(#128),#354);
#133=DESCRIPTIVE_REPRESENTATION_ITEM('Generic','Generic');
#134=PROPERTY_DEFINITION('material property','material name',#367);
#135=PROPERTY_DEFINITION('material property','density of part',#367);
#136=DATE_TIME_ROLE('creation_date');
#137=APPLIED_DATE_AND_TIME_ASSIGNMENT(#138,#136,(#367));
#138=DATE_AND_TIME(#139,#140);
#139=CALENDAR_DATE(2012,29,6);
#140=LOCAL_TIME(12,39,31.,#141);
#141=COORDINATED_UNIVERSAL_TIME_OFFSET(0,0,.BEHIND.);
#142=AXIS2_PLACEMENT_3D('placement',#188,#156,#157);
#143=AXIS2_PLACEMENT_3D('',#189,#158,#159);
#144=AXIS2_PLACEMENT_3D('',#191,#160,#161);
#145=AXIS2_PLACEMENT_3D('',#263,#163,#164);
#146=AXIS2_PLACEMENT_3D('',#336,#166,#167);
#147=AXIS2_PLACEMENT_3D('',#337,#168,#169);
#148=AXIS2_PLACEMENT_3D('',#338,#170,#171);
#149=AXIS2_PLACEMENT_3D('',#340,#172,#173);
#150=AXIS2_PLACEMENT_3D('',#343,#175,#176);
#151=AXIS2_PLACEMENT_3D('',#344,#177,#178);
#152=AXIS2_PLACEMENT_3D('',#346,#179,#180);
#153=AXIS2_PLACEMENT_3D('',#349,#182,#183);
#154=AXIS2_PLACEMENT_3D('',#350,#184,#185);
#155=AXIS2_PLACEMENT_3D('',#351,#186,#187);
#156=DIRECTION('axis',(0.,0.,1.));
#157=DIRECTION('refdir',(1.,0.,0.));
#158=DIRECTION('center_axis',(0.,0.,-1.));
#159=DIRECTION('ref_axis',(-1.,0.,0.));
#160=DIRECTION('center_axis',(0.,0.,-1.));
#161=DIRECTION('ref_axis',(-1.,0.,0.));
#162=DIRECTION('',(0.,0.,-1.));
#163=DIRECTION('center_axis',(0.,0.,-1.));
#164=DIRECTION('ref_axis',(-1.,0.,0.));
#165=DIRECTION('',(0.,0.,1.));
#166=DIRECTION('center_axis',(0.,0.,-1.));
#167=DIRECTION('ref_axis',(-1.,0.,0.));
#168=DIRECTION('center_axis',(0.,0.,1.));
#169=DIRECTION('ref_axis',(1.,0.,0.));
#170=DIRECTION('center_axis',(-1.,0.,0.));
#171=DIRECTION('ref_axis',(0.,-1.,0.));
#172=DIRECTION('center_axis',(-1.,0.,0.));
#173=DIRECTION('ref_axis',(0.,-1.,0.));
#174=DIRECTION('',(-1.,0.,0.));
#175=DIRECTION('center_axis',(1.,0.,0.));
#176=DIRECTION('ref_axis',(0.,-1.,0.));
#177=DIRECTION('center_axis',(-1.,0.,0.));
#178=DIRECTION('ref_axis',(0.,-1.,0.));
#179=DIRECTION('center_axis',(-1.,0.,0.));
#180=DIRECTION('ref_axis',(0.,-1.,0.));
#181=DIRECTION('',(1.,0.,0.));
#182=DIRECTION('center_axis',(-1.,0.,0.));
#183=DIRECTION('ref_axis',(0.,-1.,0.));
#184=DIRECTION('center_axis',(1.,0.,0.));
#185=DIRECTION('ref_axis',(0.,0.,-1.));
#186=DIRECTION('center_axis',(1.,0.,0.));
#187=DIRECTION('ref_axis',(0.,0.,-1.));
#188=CARTESIAN_POINT('',(0.,0.,0.));
#189=CARTESIAN_POINT('Origin',(0.,-0.25,2.594));
#190=CARTESIAN_POINT('',(1.185,-0.25,2.594));
#191=CARTESIAN_POINT('Origin',(0.,-0.25,2.594));
#192=CARTESIAN_POINT('',(1.185,-0.25,1.41305520062027));
#193=CARTESIAN_POINT('',(1.185,-0.25,2.594));
#194=CARTESIAN_POINT('',(0.,-1.435,3.49676543189026E-16));
#195=CARTESIAN_POINT('Ctrl Pts',(0.,-1.435,0.));
#196=CARTESIAN_POINT('Ctrl Pts',(0.0759704298514448,-1.435,0.0836009782004834));
#197=CARTESIAN_POINT('Ctrl Pts',(0.155204157599097,-1.42760217644919,0.170785983120055));
#198=CARTESIAN_POINT('Ctrl Pts',(0.31458402705571,-1.39536985557331,0.346639283385899));
#199=CARTESIAN_POINT('Ctrl Pts',(0.394729907487712,-1.37054502285809,0.435309586830496));
#200=CARTESIAN_POINT('Ctrl Pts',(0.550440344922934,-1.30282866658378,0.608708189167701));
#201=CARTESIAN_POINT('Ctrl Pts',(0.626052637812573,-1.25991983775407,0.693490714811901));
#202=CARTESIAN_POINT('Ctrl Pts',(0.76758730477936,-1.15702244369635,0.854181733782188));
#203=CARTESIAN_POINT('Ctrl Pts',(0.833506844038186,-1.09702806011471,0.930088998170841));
#204=CARTESIAN_POINT('Ctrl Pts',(0.932060390057639,-0.984268302562368,1.04628921518532));
#205=CARTESIAN_POINT('Ctrl Pts',(0.97109932354686,-0.932462440407383,1.09315273495835));
#206=CARTESIAN_POINT('Ctrl Pts',(1.04236928704379,-0.817675213679628,1.18147211141672));
#207=CARTESIAN_POINT('Ctrl Pts',(1.07459155654287,-0.754683645667124,1.22292177559658));
#208=CARTESIAN_POINT('Ctrl Pts',(1.12797796113313,-0.620294936816212,1.29627132889392));
#209=CARTESIAN_POINT('Ctrl Pts',(1.14917229674052,-0.548773591362312,1.32822275617721));
#210=CARTESIAN_POINT('Ctrl Pts',(1.17769235844308,-0.401338479634788,1.37994766913683));
#211=CARTESIAN_POINT('Ctrl Pts',(1.185,-0.325418045647381,1.39971211862067));
#212=CARTESIAN_POINT('Ctrl Pts',(1.185,-0.25,1.41305520062027));
#213=CARTESIAN_POINT('Ctrl Pts',(1.185,-0.25,1.41305520062027));
#214=CARTESIAN_POINT('Ctrl Pts',(1.185,-0.176118250869147,1.42612647856795));
#215=CARTESIAN_POINT('Ctrl Pts',(1.17796309344749,-0.0995539601366421,1.43356275148617));
#216=CARTESIAN_POINT('Ctrl Pts',(1.14833491651596,0.0525854919752863,1.43605289577369));
#217=CARTESIAN_POINT('Ctrl Pts',(1.12574676156241,0.128161006956763,1.43112220621029));
#218=CARTESIAN_POINT('Ctrl Pts',(1.06645142302877,0.272487159351938,1.41077523156495));
#219=CARTESIAN_POINT('Ctrl Pts',(1.02967710312213,0.341434529624003,1.39535941206154));
#220=CARTESIAN_POINT('Ctrl Pts',(0.945460512275479,0.468424775889927,1.35800723720123));
#221=CARTESIAN_POINT('Ctrl Pts',(0.898015534832194,0.526476093865931,1.33610569385975));
#222=CARTESIAN_POINT('Ctrl Pts',(0.795647372685637,0.631359142753175,1.28997974373148));
#223=CARTESIAN_POINT('Ctrl Pts',(0.736637865914174,0.681497128222545,1.26389246684164));
#224=CARTESIAN_POINT('Ctrl Pts',(0.608038305737264,0.77010375141264,1.21194171303438));
#225=CARTESIAN_POINT('Ctrl Pts',(0.538448234027453,0.808596697801536,1.18611975315799));
#226=CARTESIAN_POINT('Ctrl Pts',(0.392125225571727,0.871066816665391,1.14103096782958));
#227=CARTESIAN_POINT('Ctrl Pts',(0.315239949738087,0.895096728647592,1.1218088514636));
#228=CARTESIAN_POINT('Ctrl Pts',(0.158496646979658,0.927073298919358,1.09553108427848));
#229=CARTESIAN_POINT('Ctrl Pts',(0.0786175301490658,0.935,1.08857705285386));
#230=CARTESIAN_POINT('Ctrl Pts',(-0.0786175301490659,0.935,1.08857705285386));
#231=CARTESIAN_POINT('Ctrl Pts',(-0.158496646979658,0.927073298919358,1.09553108427848));
#232=CARTESIAN_POINT('Ctrl Pts',(-0.315239949738087,0.895096728647591,1.1218088514636));
#233=CARTESIAN_POINT('Ctrl Pts',(-0.392125225571727,0.871066816665391,1.14103096782958));
#234=CARTESIAN_POINT('Ctrl Pts',(-0.538448234027453,0.808596697801535,1.18611975315799));
#235=CARTESIAN_POINT('Ctrl Pts',(-0.608038305737264,0.77010375141264,1.21194171303438));
#236=CARTESIAN_POINT('Ctrl Pts',(-0.736637865914175,0.681497128222544,1.26389246684164));
#237=CARTESIAN_POINT('Ctrl Pts',(-0.795647372685637,0.631359142753174,1.28997974373148));
#238=CARTESIAN_POINT('Ctrl Pts',(-0.898015534832194,0.52647609386593,1.33610569385975));
#239=CARTESIAN_POINT('Ctrl Pts',(-0.945460512275479,0.468424775889927,1.35800723720123));
#240=CARTESIAN_POINT('Ctrl Pts',(-1.02967710312213,0.341434529624003,1.39535941206154));
#241=CARTESIAN_POINT('Ctrl Pts',(-1.06645142302877,0.272487159351938,1.41077523156495));
#242=CARTESIAN_POINT('Ctrl Pts',(-1.12574676156241,0.128161006956762,1.43112220621029));
#243=CARTESIAN_POINT('Ctrl Pts',(-1.14833491651596,0.0525854919752864,1.43605289577369));
#244=CARTESIAN_POINT('Ctrl Pts',(-1.17796309344749,-0.0995539601366417,
1.43356275148617));
#245=CARTESIAN_POINT('Ctrl Pts',(-1.185,-0.176118250869147,1.42612647856795));
#246=CARTESIAN_POINT('Ctrl Pts',(-1.185,-0.325418045647381,1.39971211862067));
#247=CARTESIAN_POINT('Ctrl Pts',(-1.17769235844308,-0.401338479634787,1.37994766913683));
#248=CARTESIAN_POINT('Ctrl Pts',(-1.14917229674052,-0.548773591362311,1.32822275617721));
#249=CARTESIAN_POINT('Ctrl Pts',(-1.12797796113313,-0.620294936816211,1.29627132889392));
#250=CARTESIAN_POINT('Ctrl Pts',(-1.07459155654287,-0.754683645667123,1.22292177559658));
#251=CARTESIAN_POINT('Ctrl Pts',(-1.04236928704379,-0.817675213679627,1.18147211141672));
#252=CARTESIAN_POINT('Ctrl Pts',(-0.97109932354686,-0.932462440407382,1.09315273495835));
#253=CARTESIAN_POINT('Ctrl Pts',(-0.93206039005764,-0.984268302562368,1.04628921518532));
#254=CARTESIAN_POINT('Ctrl Pts',(-0.833506844038187,-1.09702806011471,0.930088998170841));
#255=CARTESIAN_POINT('Ctrl Pts',(-0.76758730477936,-1.15702244369635,0.854181733782188));
#256=CARTESIAN_POINT('Ctrl Pts',(-0.626052637812573,-1.25991983775407,0.693490714811901));
#257=CARTESIAN_POINT('Ctrl Pts',(-0.550440344922934,-1.30282866658378,0.608708189167701));
#258=CARTESIAN_POINT('Ctrl Pts',(-0.394729907487712,-1.37054502285809,0.435309586830496));
#259=CARTESIAN_POINT('Ctrl Pts',(-0.314584027055709,-1.39536985557331,0.346639283385901));
#260=CARTESIAN_POINT('Ctrl Pts',(-0.155204157599097,-1.42760217644919,0.170785983120056));
#261=CARTESIAN_POINT('Ctrl Pts',(-0.075970429851445,-1.435,0.0836009782004836));
#262=CARTESIAN_POINT('Ctrl Pts',(0.,-1.435,0.));
#263=CARTESIAN_POINT('Origin',(0.,-0.25,2.594));
#264=CARTESIAN_POINT('',(0.,-1.5,0.));
#265=CARTESIAN_POINT('',(1.25,-0.25,1.4790199457749));
#266=CARTESIAN_POINT('Ctrl Pts',(0.,-1.5,0.));
#267=CARTESIAN_POINT('Ctrl Pts',(-0.0801393806804215,-1.5,0.0877882930863211));
#268=CARTESIAN_POINT('Ctrl Pts',(-0.163718050757977,-1.49219610420901,0.179337069717351));
#269=CARTESIAN_POINT('Ctrl Pts',(-0.331834452926969,-1.45819727565709,0.363966624400702));
#270=CARTESIAN_POINT('Ctrl Pts',(-0.41637199396218,-1.43201266998087,0.457049477964282));
#271=CARTESIAN_POINT('Ctrl Pts',(-0.580617370163327,-1.36058677340665,0.639029145489322));
#272=CARTESIAN_POINT('Ctrl Pts',(-0.660375666950648,-1.31532743184954,0.727982889682048));
#273=CARTESIAN_POINT('Ctrl Pts',(-0.809681893549208,-1.2067830420903,0.896504339336065));
#274=CARTESIAN_POINT('Ctrl Pts',(-0.879227040975373,-1.14349220086793,0.976070778589647));
#275=CARTESIAN_POINT('Ctrl Pts',(-0.983225417475274,-1.02449745632373,1.09778712477795));
#276=CARTESIAN_POINT('Ctrl Pts',(-1.02442252079174,-0.969819827287727,1.14684302930395));
#277=CARTESIAN_POINT('Ctrl Pts',(-1.09961808697711,-0.848683679172886,1.23916723827464));
#278=CARTESIAN_POINT('Ctrl Pts',(-1.13360731261176,-0.782214364279907,1.28242890062855));
#279=CARTESIAN_POINT('Ctrl Pts',(-1.18990651439879,-0.640435892150351,1.35879548360678));
#280=CARTESIAN_POINT('Ctrl Pts',(-1.21224895861864,-0.564994155872592,1.39195456003624));
#281=CARTESIAN_POINT('Ctrl Pts',(-1.24230513883539,-0.409520525324557,1.44535422402855));
#282=CARTESIAN_POINT('Ctrl Pts',(-1.25,-0.329481645854962,1.46558509554147));
#283=CARTESIAN_POINT('Ctrl Pts',(-1.25,-0.17183475569827,1.4922322835336));
#284=CARTESIAN_POINT('Ctrl Pts',(-1.24253352280338,-0.090903066803637,1.49939736125537));
#285=CARTESIAN_POINT('Ctrl Pts',(-1.21117146112472,0.06978911989603,1.5005283380322));
#286=CARTESIAN_POINT('Ctrl Pts',(-1.18727987573058,0.149550282701881,1.49451058427473));
#287=CARTESIAN_POINT('Ctrl Pts',(-1.12464182538092,0.301774082554162,1.47134617513329));
#288=CARTESIAN_POINT('Ctrl Pts',(-1.08582499911376,0.37444423619972,1.45419744679411));
#289=CARTESIAN_POINT('Ctrl Pts',(-0.997012761634109,0.508229572911748,1.41301146549474));
#290=CARTESIAN_POINT('Ctrl Pts',(-0.947014662739715,0.569354036400285,1.38901016238506));
#291=CARTESIAN_POINT('Ctrl Pts',(-0.83915528463177,0.679820203212343,1.33854774446481));
#292=CARTESIAN_POINT('Ctrl Pts',(-0.776968742857372,0.732643782301714,1.31004499625941));
#293=CARTESIAN_POINT('Ctrl Pts',(-0.641467892065745,0.826005656701435,1.25327549214916));
#294=CARTESIAN_POINT('Ctrl Pts',(-0.568154472468555,0.866570695031346,1.22505060517632));
#295=CARTESIAN_POINT('Ctrl Pts',(-0.413952465460839,0.932443433346297,1.17568848225537));
#296=CARTESIAN_POINT('Ctrl Pts',(-0.33290350072056,0.957807471259591,1.1545990059931));
#297=CARTESIAN_POINT('Ctrl Pts',(-0.167516670193711,0.991596466955201,1.12571331596473));
#298=CARTESIAN_POINT('Ctrl Pts',(-0.0831540346882761,1.,1.11803398874989));
#299=CARTESIAN_POINT('Ctrl Pts',(0.0831540346882761,1.,1.11803398874989));
#300=CARTESIAN_POINT('Ctrl Pts',(0.167516670193711,0.991596466955201,1.12571331596473));
#301=CARTESIAN_POINT('Ctrl Pts',(0.33290350072056,0.957807471259591,1.1545990059931));
#302=CARTESIAN_POINT('Ctrl Pts',(0.413952465460839,0.932443433346297,1.17568848225537));
#303=CARTESIAN_POINT('Ctrl Pts',(0.568154472468555,0.866570695031346,1.22505060517632));
#304=CARTESIAN_POINT('Ctrl Pts',(0.641467892065745,0.826005656701435,1.25327549214916));
#305=CARTESIAN_POINT('Ctrl Pts',(0.776968742857372,0.732643782301714,1.31004499625941));
#306=CARTESIAN_POINT('Ctrl Pts',(0.83915528463177,0.679820203212343,1.33854774446481));
#307=CARTESIAN_POINT('Ctrl Pts',(0.947014662739715,0.569354036400285,1.38901016238506));
#308=CARTESIAN_POINT('Ctrl Pts',(0.997012761634109,0.508229572911748,1.41301146549474));
#309=CARTESIAN_POINT('Ctrl Pts',(1.08582499911376,0.37444423619972,1.45419744679411));
#310=CARTESIAN_POINT('Ctrl Pts',(1.12464182538092,0.301774082554162,1.47134617513329));
#311=CARTESIAN_POINT('Ctrl Pts',(1.18727987573058,0.149550282701881,1.49451058427473));
#312=CARTESIAN_POINT('Ctrl Pts',(1.21117146112472,0.0697891198960298,1.5005283380322));
#313=CARTESIAN_POINT('Ctrl Pts',(1.24253352280338,-0.0909030668036372,1.49939736125537));
#314=CARTESIAN_POINT('Ctrl Pts',(1.25,-0.17183475569827,1.4922322835336));
#315=CARTESIAN_POINT('Ctrl Pts',(1.25,-0.25,1.4790199457749));
#316=CARTESIAN_POINT('Ctrl Pts',(1.25,-0.25,1.4790199457749));
#317=CARTESIAN_POINT('Ctrl Pts',(1.25,-0.329481645854962,1.46558509554147));
#318=CARTESIAN_POINT('Ctrl Pts',(1.24230513883539,-0.409520525324558,1.44535422402855));
#319=CARTESIAN_POINT('Ctrl Pts',(1.21224895861864,-0.564994155872592,1.39195456003624));
#320=CARTESIAN_POINT('Ctrl Pts',(1.18990651439879,-0.640435892150351,1.35879548360678));
#321=CARTESIAN_POINT('Ctrl Pts',(1.13360731261176,-0.782214364279907,1.28242890062855));
#322=CARTESIAN_POINT('Ctrl Pts',(1.09961808697711,-0.848683679172885,1.23916723827464));
#323=CARTESIAN_POINT('Ctrl Pts',(1.02442252079174,-0.969819827287727,1.14684302930395));
#324=CARTESIAN_POINT('Ctrl Pts',(0.983225417475274,-1.02449745632373,1.09778712477795));
#325=CARTESIAN_POINT('Ctrl Pts',(0.879227040975373,-1.14349220086793,0.976070778589648));
#326=CARTESIAN_POINT('Ctrl Pts',(0.809681893549209,-1.2067830420903,0.896504339336065));
#327=CARTESIAN_POINT('Ctrl Pts',(0.660375666950648,-1.31532743184954,0.727982889682048));
#328=CARTESIAN_POINT('Ctrl Pts',(0.580617370163327,-1.36058677340665,0.639029145489323));
#329=CARTESIAN_POINT('Ctrl Pts',(0.416371993962179,-1.43201266998087,0.457049477964282));
#330=CARTESIAN_POINT('Ctrl Pts',(0.331834452926969,-1.45819727565709,0.363966624400702));
#331=CARTESIAN_POINT('Ctrl Pts',(0.163718050757977,-1.49219610420901,0.179337069717351));
#332=CARTESIAN_POINT('Ctrl Pts',(0.0801393806804215,-1.5,0.0877882930863211));
#333=CARTESIAN_POINT('Ctrl Pts',(0.,-1.5,0.));
#334=CARTESIAN_POINT('',(1.25,-0.25,2.594));
#335=CARTESIAN_POINT('',(1.25,-0.25,2.594));
#336=CARTESIAN_POINT('Origin',(0.,-0.25,2.594));
#337=CARTESIAN_POINT('Origin',(-4.9468185594953E-17,-0.25,2.594));
#338=CARTESIAN_POINT('Origin',(2.594,0.,0.));
#339=CARTESIAN_POINT('',(2.594,1.435,1.75736815677645E-16));
#340=CARTESIAN_POINT('Origin',(2.594,0.,0.));
#341=CARTESIAN_POINT('',(-2.594,1.435,1.75736815677645E-16));
#342=CARTESIAN_POINT('',(2.594,1.435,-1.75736815677645E-16));
#343=CARTESIAN_POINT('Origin',(-2.594,0.,0.));
#344=CARTESIAN_POINT('Origin',(2.594,0.,0.));
#345=CARTESIAN_POINT('',(-2.594,1.5,-1.83697019872103E-16));
#346=CARTESIAN_POINT('Origin',(-2.594,0.,0.));
#347=CARTESIAN_POINT('',(2.594,1.5,1.83697019872103E-16));
#348=CARTESIAN_POINT('',(2.594,1.5,-1.83697019872103E-16));
#349=CARTESIAN_POINT('Origin',(2.594,0.,0.));
#350=CARTESIAN_POINT('Origin',(2.594,-7.64938318290664E-17,3.05928734198623E-17));
#351=CARTESIAN_POINT('Origin',(-2.594,0.,0.));
#352=UNCERTAINTY_MEASURE_WITH_UNIT(LENGTH_MEASURE(0.000393700787401575),
#357,'DISTANCE_ACCURACY_VALUE',
'Maximum model space distance between geometric entities at asserted c
onnectivities');
#353=UNCERTAINTY_MEASURE_WITH_UNIT(LENGTH_MEASURE(0.000393700787401575),
#357,'DISTANCE_ACCURACY_VALUE',
'Maximum model space distance between geometric entities at asserted c
onnectivities');
#354=(
GEOMETRIC_REPRESENTATION_CONTEXT(3)
GLOBAL_UNCERTAINTY_ASSIGNED_CONTEXT((#352))
GLOBAL_UNIT_ASSIGNED_CONTEXT((#357,#361,#362))
REPRESENTATION_CONTEXT('','3D')
);
#355=(
GEOMETRIC_REPRESENTATION_CONTEXT(3)
GLOBAL_UNCERTAINTY_ASSIGNED_CONTEXT((#353))
GLOBAL_UNIT_ASSIGNED_CONTEXT((#357,#361,#362))
REPRESENTATION_CONTEXT('','3D')
);
#356=DIMENSIONAL_EXPONENTS(1.,0.,0.,0.,0.,0.,0.);
#357=(
CONVERSION_BASED_UNIT('inch',#360)
LENGTH_UNIT()
NAMED_UNIT(#356)
);
#358=(
LENGTH_UNIT()
NAMED_UNIT(*)
SI_UNIT(.MILLI.,.METRE.)
);
#359=(
LENGTH_UNIT()
NAMED_UNIT(*)
SI_UNIT(.CENTI.,.METRE.)
);
#360=LENGTH_MEASURE_WITH_UNIT(LENGTH_MEASURE(25.4),#358);
#361=(
NAMED_UNIT(*)
PLANE_ANGLE_UNIT()
SI_UNIT($,.RADIAN.)
);
#362=(
NAMED_UNIT(*)
SI_UNIT($,.STERADIAN.)
SOLID_ANGLE_UNIT()
);
#363=SHAPE_DEFINITION_REPRESENTATION(#364,#365);
#364=PRODUCT_DEFINITION_SHAPE('',$,#367);
#365=SHAPE_REPRESENTATION('',(#142),#354);
#366=PRODUCT_DEFINITION_CONTEXT('part definition',#371,'design');
#367=PRODUCT_DEFINITION('7ERWWW-3X2.5','7ERWWW-3X2.5',#368,#366);
#368=PRODUCT_DEFINITION_FORMATION('',$,#373);
#369=PRODUCT_RELATED_PRODUCT_CATEGORY('7ERWWW-3X2.5','7ERWWW-3X2.5',(#373));
#370=APPLICATION_PROTOCOL_DEFINITION('international standard',
'automotive_design',2009,#371);
#371=APPLICATION_CONTEXT(
'Core Data for Automotive Mechanical Design Process');
#372=PRODUCT_CONTEXT('part definition',#371,'mechanical');
#373=PRODUCT('7ERWWW-3X2.5','7ERWWW-3X2.5',$,(#372));
#374=PRESENTATION_STYLE_ASSIGNMENT((#375));
#375=SURFACE_STYLE_USAGE(.BOTH.,#378);
#376=SURFACE_STYLE_RENDERING_WITH_PROPERTIES($,#382,(#377));
#377=SURFACE_STYLE_TRANSPARENT(0.);
#378=SURFACE_SIDE_STYLE('',(#379,#376));
#379=SURFACE_STYLE_FILL_AREA(#380);
#380=FILL_AREA_STYLE('',(#381));
#381=FILL_AREA_STYLE_COLOUR('',#382);
#382=COLOUR_RGB('',0.749019607843137,0.749019607843137,0.749019607843137);
ENDSEC;
END-ISO-10303-21;
