ISO-10303-21;
HEADER;
/* Generated by software containing ST-Developer
 * from STEP Tools, Inc. (www.steptools.com) 
 */

FILE_DESCRIPTION(
/* description */ (''),
/* implementation_level */ '2;1');

FILE_NAME(
/* name */ 
'W:\\AUTOCAD\\AutoCad - Projects\\Numbered\\7ERWWW\\7ERWWW\\7ERWWW-3X2.
stp',
/* time_stamp */ '2021-09-01T15:03:44-04:00',
/* author */ ('rick'),
/* organization */ (''),
/* preprocessor_version */ 'ST-DEVELOPER v18',
/* originating_system */ 'Autodesk Inventor 2020',
/* authorisation */ '');

FILE_SCHEMA (('AUTOMOTIVE_DESIGN { 1 0 10303 214 3 1 1 }'));
ENDSEC;

DATA;
#10=MECHANICAL_DESIGN_GEOMETRIC_PRESENTATION_REPRESENTATION('',(#13),#355);
#11=SHAPE_REPRESENTATION_RELATIONSHIP('SRR','None',#365,#12);
#12=ADVANCED_BREP_SHAPE_REPRESENTATION('',(#14),#354);
#13=STYLED_ITEM('',(#374),#14);
#14=MANIFOLD_SOLID_BREP('Solid1',#123);
#15=FACE_BOUND('',#33,.T.);
#16=FACE_BOUND('',#35,.T.);
#17=FACE_BOUND('',#37,.T.);
#18=FACE_BOUND('',#39,.T.);
#19=FACE_BOUND('',#41,.T.);
#20=PLANE('',#147);
#21=PLANE('',#154);
#22=PLANE('',#155);
#23=FACE_OUTER_BOUND('',#30,.T.);
#24=FACE_OUTER_BOUND('',#31,.T.);
#25=FACE_OUTER_BOUND('',#32,.T.);
#26=FACE_OUTER_BOUND('',#34,.T.);
#27=FACE_OUTER_BOUND('',#36,.T.);
#28=FACE_OUTER_BOUND('',#38,.T.);
#29=FACE_OUTER_BOUND('',#40,.T.);
#30=EDGE_LOOP('',(#84,#85,#86,#87,#88));
#31=EDGE_LOOP('',(#89,#90,#91,#92,#93));
#32=EDGE_LOOP('',(#94));
#33=EDGE_LOOP('',(#95));
#34=EDGE_LOOP('',(#96,#97,#98,#99));
#35=EDGE_LOOP('',(#100,#101));
#36=EDGE_LOOP('',(#102,#103,#104,#105));
#37=EDGE_LOOP('',(#106,#107));
#38=EDGE_LOOP('',(#108));
#39=EDGE_LOOP('',(#109));
#40=EDGE_LOOP('',(#110));
#41=EDGE_LOOP('',(#111));
#42=B_SPLINE_CURVE_WITH_KNOTS('',3,(#195,#196,#197,#198,#199,#200,#201,
#202,#203,#204,#205,#206,#207,#208,#209,#210,#211,#212),.UNSPECIFIED.,.F.,
 .F.,(4,2,2,2,2,2,2,2,4),(0.,0.726743202622447,1.45348640524489,2.18022960786734,
2.90697281048979,3.39929378819339,3.89161476589699,4.38393574360058,4.87625672130418),
 .UNSPECIFIED.);
#43=B_SPLINE_CURVE_WITH_KNOTS('',3,(#213,#214,#215,#216,#217,#218,#219,
#220,#221,#222,#223,#224,#225,#226,#227,#228,#229,#230,#231,#232,#233,#234,
#235,#236,#237,#238,#239,#240,#241,#242,#243,#244,#245,#246,#247,#248,#249,
#250,#251,#252,#253,#254,#255,#256,#257,#258,#259,#260,#261,#262),
 .UNSPECIFIED.,.F.,.F.,(4,2,2,2,2,2,2,2,2,2,2,2,2,2,2,2,2,2,2,2,2,2,2,2,
4),(4.87625672130418,5.32653591691925,5.77681511253432,6.22709430814938,
6.67737350376445,7.13326647386637,7.58915944396829,8.04505241407021,8.50094538417213,
8.95683835427404,9.41273132437596,9.86862429447788,10.3245172645798,10.7747964601949,
11.2250756558099,11.675354851425,12.1256340470401,12.6179550247437,13.1102760024473,
13.6025969801509,14.0949179578545,14.8216611604769,15.5484043630994,16.2751475657218,
17.0018907683443),.UNSPECIFIED.);
#44=B_SPLINE_CURVE_WITH_KNOTS('',3,(#266,#267,#268,#269,#270,#271,#272,
#273,#274,#275,#276,#277,#278,#279,#280,#281,#282,#283,#284,#285,#286,#287,
#288,#289,#290,#291,#292,#293,#294,#295,#296,#297,#298,#299,#300,#301,#302,
#303,#304,#305,#306,#307,#308,#309,#310,#311,#312,#313,#314,#315),
 .UNSPECIFIED.,.F.,.F.,(4,2,2,2,2,2,2,2,2,2,2,2,2,2,2,2,2,2,2,2,2,2,2,2,
4),(0.,0.771969109225692,1.54393821845138,2.31590732767708,3.08787643690277,
3.61070506686118,4.13353369681959,4.65636232677801,5.17919095673642,5.65961825090111,
6.14004554506581,6.6204728392305,7.10090013339519,7.58949588460428,8.07809163581337,
8.56668738702245,9.05528313823154,9.54387888944063,10.0324746406497,10.5210703918588,
11.0096661430679,11.4900934372326,11.9705207313973,12.450948025562,12.9313753197267),
 .UNSPECIFIED.);
#45=B_SPLINE_CURVE_WITH_KNOTS('',3,(#316,#317,#318,#319,#320,#321,#322,
#323,#324,#325,#326,#327,#328,#329,#330,#331,#332,#333),.UNSPECIFIED.,.F.,
 .F.,(4,2,2,2,2,2,2,2,4),(12.9313753197267,13.4542039496851,13.9770325796435,
14.4998612096019,15.0226898395603,15.794658948786,16.5666280580117,17.3385971672374,
18.1105662764631),.UNSPECIFIED.);
#46=LINE('',#193,#50);
#47=LINE('',#335,#51);
#48=LINE('',#342,#52);
#49=LINE('',#348,#53);
#50=VECTOR('',#162,0.935);
#51=VECTOR('',#165,1.);
#52=VECTOR('',#174,1.435);
#53=VECTOR('',#181,1.5);
#54=CIRCLE('',#144,0.935);
#55=CIRCLE('',#146,1.);
#56=CIRCLE('',#149,1.435);
#57=CIRCLE('',#150,1.435);
#58=CIRCLE('',#152,1.5);
#59=CIRCLE('',#153,1.5);
#60=VERTEX_POINT('',#190);
#61=VERTEX_POINT('',#192);
#62=VERTEX_POINT('',#194);
#63=VERTEX_POINT('',#264);
#64=VERTEX_POINT('',#265);
#65=VERTEX_POINT('',#334);
#66=VERTEX_POINT('',#339);
#67=VERTEX_POINT('',#341);
#68=VERTEX_POINT('',#345);
#69=VERTEX_POINT('',#347);
#70=EDGE_CURVE('',#60,#60,#54,.T.);
#71=EDGE_CURVE('',#60,#61,#46,.T.);
#72=EDGE_CURVE('',#62,#61,#42,.T.);
#73=EDGE_CURVE('',#61,#62,#43,.T.);
#74=EDGE_CURVE('',#63,#64,#44,.T.);
#75=EDGE_CURVE('',#64,#63,#45,.T.);
#76=EDGE_CURVE('',#64,#65,#47,.T.);
#77=EDGE_CURVE('',#65,#65,#55,.T.);
#78=EDGE_CURVE('',#66,#66,#56,.T.);
#79=EDGE_CURVE('',#66,#67,#48,.T.);
#80=EDGE_CURVE('',#67,#67,#57,.T.);
#81=EDGE_CURVE('',#68,#68,#58,.T.);
#82=EDGE_CURVE('',#68,#69,#49,.T.);
#83=EDGE_CURVE('',#69,#69,#59,.T.);
#84=ORIENTED_EDGE('',*,*,#70,.F.);
#85=ORIENTED_EDGE('',*,*,#71,.T.);
#86=ORIENTED_EDGE('',*,*,#72,.F.);
#87=ORIENTED_EDGE('',*,*,#73,.F.);
#88=ORIENTED_EDGE('',*,*,#71,.F.);
#89=ORIENTED_EDGE('',*,*,#74,.F.);
#90=ORIENTED_EDGE('',*,*,#75,.F.);
#91=ORIENTED_EDGE('',*,*,#76,.T.);
#92=ORIENTED_EDGE('',*,*,#77,.T.);
#93=ORIENTED_EDGE('',*,*,#76,.F.);
#94=ORIENTED_EDGE('',*,*,#77,.F.);
#95=ORIENTED_EDGE('',*,*,#70,.T.);
#96=ORIENTED_EDGE('',*,*,#78,.F.);
#97=ORIENTED_EDGE('',*,*,#79,.T.);
#98=ORIENTED_EDGE('',*,*,#80,.F.);
#99=ORIENTED_EDGE('',*,*,#79,.F.);
#100=ORIENTED_EDGE('',*,*,#72,.T.);
#101=ORIENTED_EDGE('',*,*,#73,.T.);
#102=ORIENTED_EDGE('',*,*,#81,.F.);
#103=ORIENTED_EDGE('',*,*,#82,.T.);
#104=ORIENTED_EDGE('',*,*,#83,.T.);
#105=ORIENTED_EDGE('',*,*,#82,.F.);
#106=ORIENTED_EDGE('',*,*,#74,.T.);
#107=ORIENTED_EDGE('',*,*,#75,.T.);
#108=ORIENTED_EDGE('',*,*,#83,.F.);
#109=ORIENTED_EDGE('',*,*,#78,.T.);
#110=ORIENTED_EDGE('',*,*,#81,.T.);
#111=ORIENTED_EDGE('',*,*,#80,.T.);
#112=CYLINDRICAL_SURFACE('',#143,0.935);
#113=CYLINDRICAL_SURFACE('',#145,1.);
#114=CYLINDRICAL_SURFACE('',#148,1.435);
#115=CYLINDRICAL_SURFACE('',#151,1.5);
#116=ADVANCED_FACE('',(#23),#112,.F.);
#117=ADVANCED_FACE('',(#24),#113,.T.);
#118=ADVANCED_FACE('',(#25,#15),#20,.T.);
#119=ADVANCED_FACE('',(#26,#16),#114,.F.);
#120=ADVANCED_FACE('',(#27,#17),#115,.T.);
#121=ADVANCED_FACE('',(#28,#18),#21,.T.);
#122=ADVANCED_FACE('',(#29,#19),#22,.F.);
#123=CLOSED_SHELL('',(#116,#117,#118,#119,#120,#121,#122));
#124=DERIVED_UNIT_ELEMENT(#126,1.);
#125=DERIVED_UNIT_ELEMENT(#359,3.);
#126=(
MASS_UNIT()
NAMED_UNIT(*)
SI_UNIT($,.GRAM.)
);
#127=DERIVED_UNIT((#124,#125));
#128=MEASURE_REPRESENTATION_ITEM('density measure',
POSITIVE_RATIO_MEASURE(1.),#127);
#129=PROPERTY_DEFINITION_REPRESENTATION(#134,#131);
#130=PROPERTY_DEFINITION_REPRESENTATION(#135,#132);
#131=REPRESENTATION('material name',(#133),#354);
#132=REPRESENTATION('density',(#128),#354);
#133=DESCRIPTIVE_REPRESENTATION_ITEM('Generic','Generic');
#134=PROPERTY_DEFINITION('material property','material name',#367);
#135=PROPERTY_DEFINITION('material property','density of part',#367);
#136=DATE_TIME_ROLE('creation_date');
#137=APPLIED_DATE_AND_TIME_ASSIGNMENT(#138,#136,(#367));
#138=DATE_AND_TIME(#139,#140);
#139=CALENDAR_DATE(2012,29,6);
#140=LOCAL_TIME(12,39,31.,#141);
#141=COORDINATED_UNIVERSAL_TIME_OFFSET(0,0,.BEHIND.);
#142=AXIS2_PLACEMENT_3D('placement',#188,#156,#157);
#143=AXIS2_PLACEMENT_3D('',#189,#158,#159);
#144=AXIS2_PLACEMENT_3D('',#191,#160,#161);
#145=AXIS2_PLACEMENT_3D('',#263,#163,#164);
#146=AXIS2_PLACEMENT_3D('',#336,#166,#167);
#147=AXIS2_PLACEMENT_3D('',#337,#168,#169);
#148=AXIS2_PLACEMENT_3D('',#338,#170,#171);
#149=AXIS2_PLACEMENT_3D('',#340,#172,#173);
#150=AXIS2_PLACEMENT_3D('',#343,#175,#176);
#151=AXIS2_PLACEMENT_3D('',#344,#177,#178);
#152=AXIS2_PLACEMENT_3D('',#346,#179,#180);
#153=AXIS2_PLACEMENT_3D('',#349,#182,#183);
#154=AXIS2_PLACEMENT_3D('',#350,#184,#185);
#155=AXIS2_PLACEMENT_3D('',#351,#186,#187);
#156=DIRECTION('axis',(0.,0.,1.));
#157=DIRECTION('refdir',(1.,0.,0.));
#158=DIRECTION('center_axis',(0.,0.,-1.));
#159=DIRECTION('ref_axis',(-1.,0.,0.));
#160=DIRECTION('center_axis',(0.,0.,-1.));
#161=DIRECTION('ref_axis',(-1.,0.,0.));
#162=DIRECTION('',(0.,0.,-1.));
#163=DIRECTION('center_axis',(0.,0.,-1.));
#164=DIRECTION('ref_axis',(-1.,0.,0.));
#165=DIRECTION('',(0.,0.,1.));
#166=DIRECTION('center_axis',(0.,0.,-1.));
#167=DIRECTION('ref_axis',(-1.,0.,0.));
#168=DIRECTION('center_axis',(0.,0.,1.));
#169=DIRECTION('ref_axis',(1.,0.,0.));
#170=DIRECTION('center_axis',(-1.,0.,0.));
#171=DIRECTION('ref_axis',(0.,-1.,0.));
#172=DIRECTION('center_axis',(-1.,0.,0.));
#173=DIRECTION('ref_axis',(0.,-1.,0.));
#174=DIRECTION('',(-1.,0.,0.));
#175=DIRECTION('center_axis',(1.,0.,0.));
#176=DIRECTION('ref_axis',(0.,-1.,0.));
#177=DIRECTION('center_axis',(-1.,0.,0.));
#178=DIRECTION('ref_axis',(0.,-1.,0.));
#179=DIRECTION('center_axis',(-1.,0.,0.));
#180=DIRECTION('ref_axis',(0.,-1.,0.));
#181=DIRECTION('',(1.,0.,0.));
#182=DIRECTION('center_axis',(-1.,0.,0.));
#183=DIRECTION('ref_axis',(0.,-1.,0.));
#184=DIRECTION('center_axis',(1.,0.,0.));
#185=DIRECTION('ref_axis',(0.,0.,-1.));
#186=DIRECTION('center_axis',(1.,0.,0.));
#187=DIRECTION('ref_axis',(0.,0.,-1.));
#188=CARTESIAN_POINT('',(0.,0.,0.));
#189=CARTESIAN_POINT('Origin',(0.,-0.5,2.5625));
#190=CARTESIAN_POINT('',(0.935,-0.5,2.5625));
#191=CARTESIAN_POINT('Origin',(0.,-0.5,2.5625));
#192=CARTESIAN_POINT('',(0.935,-0.5,1.34507434738753));
#193=CARTESIAN_POINT('',(0.935,-0.5,2.5625));
#194=CARTESIAN_POINT('',(0.,-1.435,-3.49676543189026E-16));
#195=CARTESIAN_POINT('Ctrl Pts',(0.,-1.435,0.));
#196=CARTESIAN_POINT('Ctrl Pts',(0.0599042505972047,-1.435,0.0742126234908516));
#197=CARTESIAN_POINT('Ctrl Pts',(0.122440406322117,-1.42916896515347,0.151673152083013));
#198=CARTESIAN_POINT('Ctrl Pts',(0.248291470060771,-1.40371343037376,0.308410897968634));
#199=CARTESIAN_POINT('Ctrl Pts',(0.311604323129306,-1.38409403993951,0.387690595028192));
#200=CARTESIAN_POINT('Ctrl Pts',(0.434549833616241,-1.33059367925952,0.543636730475855));
#201=CARTESIAN_POINT('Ctrl Pts',(0.4942167501926,-1.29669616570238,0.620350749955748));
#202=CARTESIAN_POINT('Ctrl Pts',(0.605691588365151,-1.21562048327399,0.767152423113102));
#203=CARTESIAN_POINT('Ctrl Pts',(0.657493026093161,-1.1684328886217,0.837239794462611));
#204=CARTESIAN_POINT('Ctrl Pts',(0.734639409318086,-1.08031627652884,0.946226925964212));
#205=CARTESIAN_POINT('Ctrl Pts',(0.765237305944748,-1.039853336434,0.990867179978157));
#206=CARTESIAN_POINT('Ctrl Pts',(0.821303644743804,-0.949988980194393,1.07732709400941));
#207=CARTESIAN_POINT('Ctrl Pts',(0.846764816948898,-0.900579947255054,1.11914355129194));
#208=CARTESIAN_POINT('Ctrl Pts',(0.889159351268305,-0.794738168573533,1.19662769953223));
#209=CARTESIAN_POINT('Ctrl Pts',(0.906106785701793,-0.738231446617773,1.23233839105496));
#210=CARTESIAN_POINT('Ctrl Pts',(0.929035820907577,-0.621145254640067,1.29530774400378));
#211=CARTESIAN_POINT('Ctrl Pts',(0.935,-0.560560263911206,1.32256248251225));
#212=CARTESIAN_POINT('Ctrl Pts',(0.935,-0.5,1.34507434738753));
#213=CARTESIAN_POINT('Ctrl Pts',(0.935,-0.5,1.34507434738753));
#214=CARTESIAN_POINT('Ctrl Pts',(0.935,-0.444611283786101,1.36566381008953));
#215=CARTESIAN_POINT('Ctrl Pts',(0.92998585058788,-0.386240802099194,1.3833657646465));
#216=CARTESIAN_POINT('Ctrl Pts',(0.907859601657972,-0.268470776926056,1.41095933245482));
#217=CARTESIAN_POINT('Ctrl Pts',(0.890737515927068,-0.209075328298483,1.42086041322557));
#218=CARTESIAN_POINT('Ctrl Pts',(0.844654105740752,-0.0942784778231792,
1.4330625829871));
#219=CARTESIAN_POINT('Ctrl Pts',(0.815631490408841,-0.0387274300324543,
1.43540367446886));
#220=CARTESIAN_POINT('Ctrl Pts',(0.747991207020891,0.0643901719133156,1.434481588687));
#221=CARTESIAN_POINT('Ctrl Pts',(0.709370812708707,0.111955241497592,1.4312526985495));
#222=CARTESIAN_POINT('Ctrl Pts',(0.626429500788936,0.196684533993442,1.4221035301256));
#223=CARTESIAN_POINT('Ctrl Pts',(0.579273664334871,0.236575032875089,1.41581730163565));
#224=CARTESIAN_POINT('Ctrl Pts',(0.476505514357434,0.306872512666968,1.40226090260999));
#225=CARTESIAN_POINT('Ctrl Pts',(0.420893554822199,0.337287084150557,1.39502743582557));
#226=CARTESIAN_POINT('Ctrl Pts',(0.304662138724818,0.386217756446748,1.38228074758439));
#227=CARTESIAN_POINT('Ctrl Pts',(0.243942202305707,0.404772002432805,1.37678870051911));
#228=CARTESIAN_POINT('Ctrl Pts',(0.121526610062502,0.429167077031442,1.36938056078696));
#229=CARTESIAN_POINT('Ctrl Pts',(0.059828473766656,0.435,1.36747943311773));
#230=CARTESIAN_POINT('Ctrl Pts',(-0.0598284737666558,0.435,1.36747943311773));
#231=CARTESIAN_POINT('Ctrl Pts',(-0.121526610062501,0.429167077031443,1.36938056078696));
#232=CARTESIAN_POINT('Ctrl Pts',(-0.243942202305706,0.404772002432805,1.37678870051911));
#233=CARTESIAN_POINT('Ctrl Pts',(-0.304662138724817,0.386217756446748,1.38228074758439));
#234=CARTESIAN_POINT('Ctrl Pts',(-0.420893554822199,0.337287084150557,1.39502743582557));
#235=CARTESIAN_POINT('Ctrl Pts',(-0.476505514357434,0.306872512666968,1.40226090260999));
#236=CARTESIAN_POINT('Ctrl Pts',(-0.579273664334871,0.23657503287509,1.41581730163565));
#237=CARTESIAN_POINT('Ctrl Pts',(-0.626429500788935,0.196684533993442,1.4221035301256));
#238=CARTESIAN_POINT('Ctrl Pts',(-0.709370812708706,0.111955241497593,1.4312526985495));
#239=CARTESIAN_POINT('Ctrl Pts',(-0.747991207020891,0.0643901719133162,
1.434481588687));
#240=CARTESIAN_POINT('Ctrl Pts',(-0.815631490408841,-0.0387274300324539,
1.43540367446886));
#241=CARTESIAN_POINT('Ctrl Pts',(-0.844654105740752,-0.0942784778231788,
1.4330625829871));
#242=CARTESIAN_POINT('Ctrl Pts',(-0.890737515927068,-0.209075328298483,
1.42086041322557));
#243=CARTESIAN_POINT('Ctrl Pts',(-0.907859601657972,-0.268470776926056,
1.41095933245482));
#244=CARTESIAN_POINT('Ctrl Pts',(-0.92998585058788,-0.386240802099194,1.3833657646465));
#245=CARTESIAN_POINT('Ctrl Pts',(-0.935,-0.444611283786101,1.36566381008953));
#246=CARTESIAN_POINT('Ctrl Pts',(-0.935,-0.560560263911205,1.32256248251225));
#247=CARTESIAN_POINT('Ctrl Pts',(-0.929035820907577,-0.621145254640066,
1.29530774400378));
#248=CARTESIAN_POINT('Ctrl Pts',(-0.906106785701794,-0.738231446617772,
1.23233839105496));
#249=CARTESIAN_POINT('Ctrl Pts',(-0.889159351268306,-0.794738168573532,
1.19662769953223));
#250=CARTESIAN_POINT('Ctrl Pts',(-0.846764816948898,-0.900579947255053,
1.11914355129194));
#251=CARTESIAN_POINT('Ctrl Pts',(-0.821303644743805,-0.949988980194393,
1.07732709400941));
#252=CARTESIAN_POINT('Ctrl Pts',(-0.765237305944749,-1.039853336434,0.990867179978157));
#253=CARTESIAN_POINT('Ctrl Pts',(-0.734639409318086,-1.08031627652884,0.946226925964212));
#254=CARTESIAN_POINT('Ctrl Pts',(-0.657493026093161,-1.1684328886217,0.837239794462611));
#255=CARTESIAN_POINT('Ctrl Pts',(-0.605691588365151,-1.21562048327399,0.767152423113102));
#256=CARTESIAN_POINT('Ctrl Pts',(-0.4942167501926,-1.29669616570238,0.620350749955748));
#257=CARTESIAN_POINT('Ctrl Pts',(-0.434549833616241,-1.33059367925952,0.543636730475856));
#258=CARTESIAN_POINT('Ctrl Pts',(-0.311604323129306,-1.38409403993951,0.387690595028192));
#259=CARTESIAN_POINT('Ctrl Pts',(-0.248291470060771,-1.40371343037376,0.308410897968634));
#260=CARTESIAN_POINT('Ctrl Pts',(-0.122440406322117,-1.42916896515347,0.151673152083013));
#261=CARTESIAN_POINT('Ctrl Pts',(-0.0599042505972048,-1.435,0.0742126234908516));
#262=CARTESIAN_POINT('Ctrl Pts',(0.,-1.435,0.));
#263=CARTESIAN_POINT('Origin',(0.,-0.5,2.5625));
#264=CARTESIAN_POINT('',(0.,-1.5,0.));
#265=CARTESIAN_POINT('',(1.,-0.5,1.41421356237309));
#266=CARTESIAN_POINT('Ctrl Pts',(0.,-1.5,0.));
#267=CARTESIAN_POINT('Ctrl Pts',(-0.0640729834237399,-1.5,0.0784730578429837));
#268=CARTESIAN_POINT('Ctrl Pts',(-0.130955087162403,-1.49376293371941,0.16037379703915));
#269=CARTESIAN_POINT('Ctrl Pts',(-0.265546714609521,-1.46653967587728,0.326050359037611));
#270=CARTESIAN_POINT('Ctrl Pts',(-0.333254248108722,-1.44555920218052,0.409828738107416));
#271=CARTESIAN_POINT('Ctrl Pts',(-0.464740675186025,-1.38834485812266,0.574543029568693));
#272=CARTESIAN_POINT('Ctrl Pts',(-0.528556664878394,-1.35209350272621,0.655529385857947));
#273=CARTESIAN_POINT('Ctrl Pts',(-0.647805021684754,-1.26536536302163,0.810386398257227));
#274=CARTESIAN_POINT('Ctrl Pts',(-0.703230901661506,-1.21487884304872,0.884256597107319));
#275=CARTESIAN_POINT('Ctrl Pts',(-0.785793218525995,-1.12055701642647,0.998973599219439));
#276=CARTESIAN_POINT('Ctrl Pts',(-0.818530433895234,-1.07725106198074,1.04589585492569));
#277=CARTESIAN_POINT('Ctrl Pts',(-0.878500730928361,-0.981089726998631,
1.13658740879566));
#278=CARTESIAN_POINT('Ctrl Pts',(-0.905726095127138,-0.928226168999633,
1.1803531391317));
#279=CARTESIAN_POINT('Ctrl Pts',(-0.951042092378914,-0.815018002094561,
1.26118321323877));
#280=CARTESIAN_POINT('Ctrl Pts',(-0.969148629267603,-0.754592252327053,
1.29829342285677));
#281=CARTESIAN_POINT('Ctrl Pts',(-0.993636762201768,-0.629430542614115,
1.3633753963398));
#282=CARTESIAN_POINT('Ctrl Pts',(-1.,-0.564688656105348,1.39134266867413));
#283=CARTESIAN_POINT('Ctrl Pts',(-1.,-0.440557585726866,1.43522962948441));
#284=CARTESIAN_POINT('Ctrl Pts',(-0.994600163960766,-0.377992842334271,
1.45302409409153));
#285=CARTESIAN_POINT('Ctrl Pts',(-0.970858307276415,-0.251908525079758,
1.48010124713239));
#286=CARTESIAN_POINT('Ctrl Pts',(-0.952506715775251,-0.188393006350481,
1.48939442426939));
#287=CARTESIAN_POINT('Ctrl Pts',(-0.903212378680806,-0.065747326908367,
1.49982164202811));
#288=CARTESIAN_POINT('Ctrl Pts',(-0.872204831476633,-0.00645612321593498,
1.50099512897289));
#289=CARTESIAN_POINT('Ctrl Pts',(-0.800040051943975,0.103541830840274,1.49743352039915));
#290=CARTESIAN_POINT('Ctrl Pts',(-0.758879904462907,0.154247846104024,1.4927348821116));
#291=CARTESIAN_POINT('Ctrl Pts',(-0.670378547377096,0.244759450708287,1.48061235117001));
#292=CARTESIAN_POINT('Ctrl Pts',(-0.619955596811274,0.287458003233565,1.47270278475994));
#293=CARTESIAN_POINT('Ctrl Pts',(-0.510060560166761,0.362712740952803,1.4559962444003));
#294=CARTESIAN_POINT('Ctrl Pts',(-0.450588390956602,0.395277649604728,1.44723913709135));
#295=CARTESIAN_POINT('Ctrl Pts',(-0.326247630821317,0.447688925043205,1.43189395362047));
#296=CARTESIAN_POINT('Ctrl Pts',(-0.261269980890943,0.467576048913598,1.42532919077764));
#297=CARTESIAN_POINT('Ctrl Pts',(-0.130207758815918,0.493736057640075,1.41647992205759));
#298=CARTESIAN_POINT('Ctrl Pts',(-0.0641201773240271,0.5,1.41421356237309));
#299=CARTESIAN_POINT('Ctrl Pts',(0.0641201773240273,0.5,1.41421356237309));
#300=CARTESIAN_POINT('Ctrl Pts',(0.130207758815918,0.493736057640075,1.41647992205759));
#301=CARTESIAN_POINT('Ctrl Pts',(0.261269980890944,0.467576048913598,1.42532919077764));
#302=CARTESIAN_POINT('Ctrl Pts',(0.326247630821318,0.447688925043205,1.43189395362047));
#303=CARTESIAN_POINT('Ctrl Pts',(0.450588390956603,0.395277649604728,1.44723913709135));
#304=CARTESIAN_POINT('Ctrl Pts',(0.510060560166762,0.362712740952802,1.4559962444003));
#305=CARTESIAN_POINT('Ctrl Pts',(0.619955596811274,0.287458003233565,1.47270278475994));
#306=CARTESIAN_POINT('Ctrl Pts',(0.670378547377096,0.244759450708287,1.48061235117001));
#307=CARTESIAN_POINT('Ctrl Pts',(0.758879904462907,0.154247846104023,1.4927348821116));
#308=CARTESIAN_POINT('Ctrl Pts',(0.800040051943975,0.103541830840274,1.49743352039915));
#309=CARTESIAN_POINT('Ctrl Pts',(0.872204831476633,-0.00645612321593506,
1.50099512897289));
#310=CARTESIAN_POINT('Ctrl Pts',(0.903212378680806,-0.0657473269083671,
1.49982164202811));
#311=CARTESIAN_POINT('Ctrl Pts',(0.952506715775251,-0.188393006350481,1.48939442426939));
#312=CARTESIAN_POINT('Ctrl Pts',(0.970858307276415,-0.251908525079757,1.48010124713239));
#313=CARTESIAN_POINT('Ctrl Pts',(0.994600163960766,-0.377992842334271,1.45302409409153));
#314=CARTESIAN_POINT('Ctrl Pts',(1.,-0.440557585726866,1.43522962948441));
#315=CARTESIAN_POINT('Ctrl Pts',(1.,-0.5,1.41421356237309));
#316=CARTESIAN_POINT('Ctrl Pts',(1.,-0.5,1.41421356237309));
#317=CARTESIAN_POINT('Ctrl Pts',(1.,-0.564688656105348,1.39134266867413));
#318=CARTESIAN_POINT('Ctrl Pts',(0.993636762201768,-0.629430542614114,1.3633753963398));
#319=CARTESIAN_POINT('Ctrl Pts',(0.969148629267603,-0.754592252327052,1.29829342285677));
#320=CARTESIAN_POINT('Ctrl Pts',(0.951042092378914,-0.815018002094561,1.26118321323878));
#321=CARTESIAN_POINT('Ctrl Pts',(0.905726095127138,-0.928226168999633,1.1803531391317));
#322=CARTESIAN_POINT('Ctrl Pts',(0.878500730928361,-0.98108972699863,1.13658740879566));
#323=CARTESIAN_POINT('Ctrl Pts',(0.818530433895234,-1.07725106198074,1.04589585492569));
#324=CARTESIAN_POINT('Ctrl Pts',(0.785793218525995,-1.12055701642647,0.998973599219439));
#325=CARTESIAN_POINT('Ctrl Pts',(0.703230901661506,-1.21487884304872,0.88425659710732));
#326=CARTESIAN_POINT('Ctrl Pts',(0.647805021684754,-1.26536536302163,0.810386398257227));
#327=CARTESIAN_POINT('Ctrl Pts',(0.528556664878394,-1.35209350272621,0.655529385857947));
#328=CARTESIAN_POINT('Ctrl Pts',(0.464740675186025,-1.38834485812266,0.574543029568694));
#329=CARTESIAN_POINT('Ctrl Pts',(0.333254248108722,-1.44555920218052,0.409828738107416));
#330=CARTESIAN_POINT('Ctrl Pts',(0.265546714609521,-1.46653967587728,0.326050359037611));
#331=CARTESIAN_POINT('Ctrl Pts',(0.130955087162402,-1.49376293371941,0.160373797039149));
#332=CARTESIAN_POINT('Ctrl Pts',(0.0640729834237397,-1.5,0.0784730578429836));
#333=CARTESIAN_POINT('Ctrl Pts',(0.,-1.5,0.));
#334=CARTESIAN_POINT('',(1.,-0.5,2.5625));
#335=CARTESIAN_POINT('',(1.,-0.5,2.5625));
#336=CARTESIAN_POINT('Origin',(0.,-0.5,2.5625));
#337=CARTESIAN_POINT('Origin',(-5.6094700122688E-17,-0.5,2.5625));
#338=CARTESIAN_POINT('Origin',(2.594,0.,0.));
#339=CARTESIAN_POINT('',(2.594,1.435,1.75736815677645E-16));
#340=CARTESIAN_POINT('Origin',(2.594,0.,0.));
#341=CARTESIAN_POINT('',(-2.594,1.435,1.75736815677645E-16));
#342=CARTESIAN_POINT('',(2.594,1.435,-1.75736815677645E-16));
#343=CARTESIAN_POINT('Origin',(-2.594,0.,0.));
#344=CARTESIAN_POINT('Origin',(2.594,0.,0.));
#345=CARTESIAN_POINT('',(-2.594,1.5,-1.83697019872103E-16));
#346=CARTESIAN_POINT('Origin',(-2.594,0.,0.));
#347=CARTESIAN_POINT('',(2.594,1.5,1.83697019872103E-16));
#348=CARTESIAN_POINT('',(2.594,1.5,-1.83697019872103E-16));
#349=CARTESIAN_POINT('Origin',(2.594,0.,0.));
#350=CARTESIAN_POINT('Origin',(2.594,-7.64938318290664E-17,3.05928734198623E-17));
#351=CARTESIAN_POINT('Origin',(-2.594,0.,0.));
#352=UNCERTAINTY_MEASURE_WITH_UNIT(LENGTH_MEASURE(0.000393700787401575),
#357,'DISTANCE_ACCURACY_VALUE',
'Maximum model space distance between geometric entities at asserted c
onnectivities');
#353=UNCERTAINTY_MEASURE_WITH_UNIT(LENGTH_MEASURE(0.000393700787401575),
#357,'DISTANCE_ACCURACY_VALUE',
'Maximum model space distance between geometric entities at asserted c
onnectivities');
#354=(
GEOMETRIC_REPRESENTATION_CONTEXT(3)
GLOBAL_UNCERTAINTY_ASSIGNED_CONTEXT((#352))
GLOBAL_UNIT_ASSIGNED_CONTEXT((#357,#361,#362))
REPRESENTATION_CONTEXT('','3D')
);
#355=(
GEOMETRIC_REPRESENTATION_CONTEXT(3)
GLOBAL_UNCERTAINTY_ASSIGNED_CONTEXT((#353))
GLOBAL_UNIT_ASSIGNED_CONTEXT((#357,#361,#362))
REPRESENTATION_CONTEXT('','3D')
);
#356=DIMENSIONAL_EXPONENTS(1.,0.,0.,0.,0.,0.,0.);
#357=(
CONVERSION_BASED_UNIT('inch',#360)
LENGTH_UNIT()
NAMED_UNIT(#356)
);
#358=(
LENGTH_UNIT()
NAMED_UNIT(*)
SI_UNIT(.MILLI.,.METRE.)
);
#359=(
LENGTH_UNIT()
NAMED_UNIT(*)
SI_UNIT(.CENTI.,.METRE.)
);
#360=LENGTH_MEASURE_WITH_UNIT(LENGTH_MEASURE(25.4),#358);
#361=(
NAMED_UNIT(*)
PLANE_ANGLE_UNIT()
SI_UNIT($,.RADIAN.)
);
#362=(
NAMED_UNIT(*)
SI_UNIT($,.STERADIAN.)
SOLID_ANGLE_UNIT()
);
#363=SHAPE_DEFINITION_REPRESENTATION(#364,#365);
#364=PRODUCT_DEFINITION_SHAPE('',$,#367);
#365=SHAPE_REPRESENTATION('',(#142),#354);
#366=PRODUCT_DEFINITION_CONTEXT('part definition',#371,'design');
#367=PRODUCT_DEFINITION('7ERWWW-3X2','7ERWWW-3X2',#368,#366);
#368=PRODUCT_DEFINITION_FORMATION('',$,#373);
#369=PRODUCT_RELATED_PRODUCT_CATEGORY('7ERWWW-3X2','7ERWWW-3X2',(#373));
#370=APPLICATION_PROTOCOL_DEFINITION('international standard',
'automotive_design',2009,#371);
#371=APPLICATION_CONTEXT(
'Core Data for Automotive Mechanical Design Process');
#372=PRODUCT_CONTEXT('part definition',#371,'mechanical');
#373=PRODUCT('7ERWWW-3X2','7ERWWW-3X2',$,(#372));
#374=PRESENTATION_STYLE_ASSIGNMENT((#375));
#375=SURFACE_STYLE_USAGE(.BOTH.,#378);
#376=SURFACE_STYLE_RENDERING_WITH_PROPERTIES($,#382,(#377));
#377=SURFACE_STYLE_TRANSPARENT(0.);
#378=SURFACE_SIDE_STYLE('',(#379,#376));
#379=SURFACE_STYLE_FILL_AREA(#380);
#380=FILL_AREA_STYLE('',(#381));
#381=FILL_AREA_STYLE_COLOUR('',#382);
#382=COLOUR_RGB('',0.749019607843137,0.749019607843137,0.749019607843137);
ENDSEC;
END-ISO-10303-21;
