ISO-10303-21;
HEADER;
/* Generated by software containing ST-Developer
 * from STEP Tools, Inc. (www.steptools.com) 
 */

FILE_DESCRIPTION(
/* description */ (''),
/* implementation_level */ '2;1');

FILE_NAME(
/* name */ 
'W:\\AUTOCAD\\AutoCad - Projects\\Numbered\\7ERWWW\\7ERWWW\\7ERWWW-4X2.
5.stp',
/* time_stamp */ '2021-09-01T15:04:15-04:00',
/* author */ ('rick'),
/* organization */ (''),
/* preprocessor_version */ 'ST-DEVELOPER v18',
/* originating_system */ 'Autodesk Inventor 2020',
/* authorisation */ '');

FILE_SCHEMA (('AUTOMOTIVE_DESIGN { 1 0 10303 214 3 1 1 }'));
ENDSEC;

DATA;
#10=MECHANICAL_DESIGN_GEOMETRIC_PRESENTATION_REPRESENTATION('',(#13),#394);
#11=SHAPE_REPRESENTATION_RELATIONSHIP('SRR','None',#404,#12);
#12=ADVANCED_BREP_SHAPE_REPRESENTATION('',(#14),#393);
#13=STYLED_ITEM('',(#413),#14);
#14=MANIFOLD_SOLID_BREP('Solid1',#137);
#15=FACE_BOUND('',#40,.T.);
#16=FACE_BOUND('',#42,.T.);
#17=FACE_BOUND('',#44,.T.);
#18=FACE_BOUND('',#46,.T.);
#19=FACE_BOUND('',#48,.T.);
#20=B_SPLINE_CURVE_WITH_KNOTS('',3,(#220,#221,#222,#223,#224,#225,#226,
#227,#228,#229,#230,#231,#232,#233,#234,#235,#236,#237,#238,#239,#240,#241,
#242,#243),.UNSPECIFIED.,.F.,.F.,(4,2,2,2,2,2,2,2,2,2,2,4),(1.05816226726762,
1.31176222954191,1.5653621918162,2.07256211636478,2.57976204091336,3.08696196546194,
4.1013618145591,5.11576166365626,5.7438910850814,6.37202050650653,7.00014992793167,
7.34927907674575),.UNSPECIFIED.);
#21=B_SPLINE_CURVE_WITH_KNOTS('',3,(#244,#245,#246,#247,#248,#249,#250,
#251,#252,#253,#254,#255,#256,#257,#258,#259,#260,#261,#262,#263,#264,#265,
#266,#267,#268,#269,#270,#271,#272,#273,#274,#275,#276,#277,#278,#279,#280,
#281,#282,#283,#284,#285,#286,#287,#288,#289,#290,#291,#292,#293,#294,#295,
#296,#297,#298,#299,#300,#301),.UNSPECIFIED.,.F.,.F.,(4,2,2,2,2,2,2,2,2,
2,2,2,2,2,2,2,2,2,2,2,2,2,2,2,2,2,2,2,4),(7.34927907674575,7.6282793493568,
8.16601555065338,8.70375175194996,9.24148795324653,9.77922415454311,10.3211576360238,
10.8630911175045,11.4050245989853,11.946958080466,12.4888915619467,13.0308250434274,
13.5727585249081,14.1146920063888,14.6524282076854,15.190164408982,15.7279006102786,
16.2656368115751,16.8937662330003,17.5218956544254,18.1500250758505,18.7781544972757,
19.7925543463728,20.80695419547,21.3141541200186,21.8213540445672,22.3285539691157,
22.58215393139,22.8357538936643),.UNSPECIFIED.);
#22=B_SPLINE_CURVE_WITH_KNOTS('',3,(#305,#306,#307,#308,#309,#310,#311,
#312,#313,#314,#315,#316,#317,#318,#319,#320,#321,#322,#323,#324,#325,#326,
#327,#328,#329,#330,#331,#332,#333,#334,#335,#336,#337,#338,#339,#340,#341,
#342,#343,#344,#345,#346,#347,#348,#349,#350,#351,#352,#353,#354),
 .UNSPECIFIED.,.F.,.F.,(4,2,2,2,2,2,2,2,2,2,2,2,2,2,2,2,2,2,2,2,2,2,2,2,
4),(0.,0.983885203568997,1.96777040713799,2.95165561070699,3.93554081427599,
4.60245086531981,5.26936091636364,5.93627096740746,6.60318101845128,7.20841238692524,
7.8136437553992,8.41887512387316,9.02410649234712,9.6315104616668,10.2389144309865,
10.8463184003061,11.4537223696258,12.0611263389455,12.6685303082652,13.2759342775849,
13.8833382469045,14.4885696153785,15.0938009838525,15.6990323523264,16.3042637208004),
 .UNSPECIFIED.);
#23=B_SPLINE_CURVE_WITH_KNOTS('',3,(#355,#356,#357,#358,#359,#360,#361,
#362,#363,#364,#365,#366,#367,#368,#369,#370,#371,#372),.UNSPECIFIED.,.F.,
 .F.,(4,2,2,2,2,2,2,2,4),(16.3042637208004,16.9711737718442,17.638083822888,
18.3049938739318,18.9719039249757,19.9557891285447,20.9396743321137,21.9235595356827,
22.9074447392517),.UNSPECIFIED.);
#24=CYLINDRICAL_SURFACE('',#159,1.185);
#25=CYLINDRICAL_SURFACE('',#161,1.25);
#26=CYLINDRICAL_SURFACE('',#164,1.917);
#27=CYLINDRICAL_SURFACE('',#167,2.);
#28=FACE_OUTER_BOUND('',#36,.T.);
#29=FACE_OUTER_BOUND('',#37,.T.);
#30=FACE_OUTER_BOUND('',#38,.T.);
#31=FACE_OUTER_BOUND('',#39,.T.);
#32=FACE_OUTER_BOUND('',#41,.T.);
#33=FACE_OUTER_BOUND('',#43,.T.);
#34=FACE_OUTER_BOUND('',#45,.T.);
#35=FACE_OUTER_BOUND('',#47,.T.);
#36=EDGE_LOOP('',(#93,#94));
#37=EDGE_LOOP('',(#95,#96,#97,#98,#99,#100));
#38=EDGE_LOOP('',(#101,#102,#103,#104,#105));
#39=EDGE_LOOP('',(#106));
#40=EDGE_LOOP('',(#107));
#41=EDGE_LOOP('',(#108,#109,#110,#111));
#42=EDGE_LOOP('',(#112,#113,#114));
#43=EDGE_LOOP('',(#115,#116,#117,#118));
#44=EDGE_LOOP('',(#119,#120));
#45=EDGE_LOOP('',(#121));
#46=EDGE_LOOP('',(#122));
#47=EDGE_LOOP('',(#123));
#48=EDGE_LOOP('',(#124));
#49=CIRCLE('',#158,1.185);
#50=CIRCLE('',#160,1.185);
#51=CIRCLE('',#162,1.25);
#52=CIRCLE('',#165,1.917);
#53=CIRCLE('',#166,1.917);
#54=CIRCLE('',#168,2.);
#55=CIRCLE('',#169,2.);
#56=LINE('',#213,#61);
#57=LINE('',#219,#62);
#58=LINE('',#374,#63);
#59=LINE('',#381,#64);
#60=LINE('',#387,#65);
#61=VECTOR('',#176,0.393700787401575);
#62=VECTOR('',#183,1.185);
#63=VECTOR('',#186,1.25);
#64=VECTOR('',#195,1.917);
#65=VECTOR('',#202,2.);
#66=VERTEX_POINT('',#211);
#67=VERTEX_POINT('',#212);
#68=VERTEX_POINT('',#216);
#69=VERTEX_POINT('',#218);
#70=VERTEX_POINT('',#303);
#71=VERTEX_POINT('',#304);
#72=VERTEX_POINT('',#373);
#73=VERTEX_POINT('',#378);
#74=VERTEX_POINT('',#380);
#75=VERTEX_POINT('',#384);
#76=VERTEX_POINT('',#386);
#77=EDGE_CURVE('',#66,#67,#56,.T.);
#78=EDGE_CURVE('',#67,#66,#49,.T.);
#79=EDGE_CURVE('',#68,#68,#50,.T.);
#80=EDGE_CURVE('',#68,#69,#57,.T.);
#81=EDGE_CURVE('',#67,#69,#20,.T.);
#82=EDGE_CURVE('',#69,#66,#21,.T.);
#83=EDGE_CURVE('',#70,#71,#22,.T.);
#84=EDGE_CURVE('',#71,#70,#23,.T.);
#85=EDGE_CURVE('',#71,#72,#58,.T.);
#86=EDGE_CURVE('',#72,#72,#51,.T.);
#87=EDGE_CURVE('',#73,#73,#52,.T.);
#88=EDGE_CURVE('',#73,#74,#59,.T.);
#89=EDGE_CURVE('',#74,#74,#53,.T.);
#90=EDGE_CURVE('',#75,#75,#54,.T.);
#91=EDGE_CURVE('',#75,#76,#60,.T.);
#92=EDGE_CURVE('',#76,#76,#55,.T.);
#93=ORIENTED_EDGE('',*,*,#77,.F.);
#94=ORIENTED_EDGE('',*,*,#78,.F.);
#95=ORIENTED_EDGE('',*,*,#79,.F.);
#96=ORIENTED_EDGE('',*,*,#80,.T.);
#97=ORIENTED_EDGE('',*,*,#81,.F.);
#98=ORIENTED_EDGE('',*,*,#78,.T.);
#99=ORIENTED_EDGE('',*,*,#82,.F.);
#100=ORIENTED_EDGE('',*,*,#80,.F.);
#101=ORIENTED_EDGE('',*,*,#83,.F.);
#102=ORIENTED_EDGE('',*,*,#84,.F.);
#103=ORIENTED_EDGE('',*,*,#85,.T.);
#104=ORIENTED_EDGE('',*,*,#86,.T.);
#105=ORIENTED_EDGE('',*,*,#85,.F.);
#106=ORIENTED_EDGE('',*,*,#86,.F.);
#107=ORIENTED_EDGE('',*,*,#79,.T.);
#108=ORIENTED_EDGE('',*,*,#87,.F.);
#109=ORIENTED_EDGE('',*,*,#88,.T.);
#110=ORIENTED_EDGE('',*,*,#89,.F.);
#111=ORIENTED_EDGE('',*,*,#88,.F.);
#112=ORIENTED_EDGE('',*,*,#81,.T.);
#113=ORIENTED_EDGE('',*,*,#82,.T.);
#114=ORIENTED_EDGE('',*,*,#77,.T.);
#115=ORIENTED_EDGE('',*,*,#90,.F.);
#116=ORIENTED_EDGE('',*,*,#91,.T.);
#117=ORIENTED_EDGE('',*,*,#92,.T.);
#118=ORIENTED_EDGE('',*,*,#91,.F.);
#119=ORIENTED_EDGE('',*,*,#83,.T.);
#120=ORIENTED_EDGE('',*,*,#84,.T.);
#121=ORIENTED_EDGE('',*,*,#92,.F.);
#122=ORIENTED_EDGE('',*,*,#87,.T.);
#123=ORIENTED_EDGE('',*,*,#90,.T.);
#124=ORIENTED_EDGE('',*,*,#89,.T.);
#125=PLANE('',#157);
#126=PLANE('',#163);
#127=PLANE('',#170);
#128=PLANE('',#171);
#129=ADVANCED_FACE('',(#28),#125,.T.);
#130=ADVANCED_FACE('',(#29),#24,.F.);
#131=ADVANCED_FACE('',(#30),#25,.T.);
#132=ADVANCED_FACE('',(#31,#15),#126,.T.);
#133=ADVANCED_FACE('',(#32,#16),#26,.F.);
#134=ADVANCED_FACE('',(#33,#17),#27,.T.);
#135=ADVANCED_FACE('',(#34,#18),#127,.T.);
#136=ADVANCED_FACE('',(#35,#19),#128,.F.);
#137=CLOSED_SHELL('',(#129,#130,#131,#132,#133,#134,#135,#136));
#138=DERIVED_UNIT_ELEMENT(#140,1.);
#139=DERIVED_UNIT_ELEMENT(#398,3.);
#140=(
MASS_UNIT()
NAMED_UNIT(*)
SI_UNIT($,.GRAM.)
);
#141=DERIVED_UNIT((#138,#139));
#142=MEASURE_REPRESENTATION_ITEM('density measure',
POSITIVE_RATIO_MEASURE(1.),#141);
#143=PROPERTY_DEFINITION_REPRESENTATION(#148,#145);
#144=PROPERTY_DEFINITION_REPRESENTATION(#149,#146);
#145=REPRESENTATION('material name',(#147),#393);
#146=REPRESENTATION('density',(#142),#393);
#147=DESCRIPTIVE_REPRESENTATION_ITEM('Generic','Generic');
#148=PROPERTY_DEFINITION('material property','material name',#406);
#149=PROPERTY_DEFINITION('material property','density of part',#406);
#150=DATE_TIME_ROLE('creation_date');
#151=APPLIED_DATE_AND_TIME_ASSIGNMENT(#152,#150,(#406));
#152=DATE_AND_TIME(#153,#154);
#153=CALENDAR_DATE(2012,29,6);
#154=LOCAL_TIME(12,39,31.,#155);
#155=COORDINATED_UNIVERSAL_TIME_OFFSET(0,0,.BEHIND.);
#156=AXIS2_PLACEMENT_3D('placement',#209,#172,#173);
#157=AXIS2_PLACEMENT_3D('',#210,#174,#175);
#158=AXIS2_PLACEMENT_3D('',#214,#177,#178);
#159=AXIS2_PLACEMENT_3D('',#215,#179,#180);
#160=AXIS2_PLACEMENT_3D('',#217,#181,#182);
#161=AXIS2_PLACEMENT_3D('',#302,#184,#185);
#162=AXIS2_PLACEMENT_3D('',#375,#187,#188);
#163=AXIS2_PLACEMENT_3D('',#376,#189,#190);
#164=AXIS2_PLACEMENT_3D('',#377,#191,#192);
#165=AXIS2_PLACEMENT_3D('',#379,#193,#194);
#166=AXIS2_PLACEMENT_3D('',#382,#196,#197);
#167=AXIS2_PLACEMENT_3D('',#383,#198,#199);
#168=AXIS2_PLACEMENT_3D('',#385,#200,#201);
#169=AXIS2_PLACEMENT_3D('',#388,#203,#204);
#170=AXIS2_PLACEMENT_3D('',#389,#205,#206);
#171=AXIS2_PLACEMENT_3D('',#390,#207,#208);
#172=DIRECTION('axis',(0.,0.,1.));
#173=DIRECTION('refdir',(1.,0.,0.));
#174=DIRECTION('center_axis',(0.,0.,1.));
#175=DIRECTION('ref_axis',(1.,0.,0.));
#176=DIRECTION('',(1.,0.,0.));
#177=DIRECTION('center_axis',(0.,0.,-1.));
#178=DIRECTION('ref_axis',(-1.,0.,0.));
#179=DIRECTION('center_axis',(0.,0.,-1.));
#180=DIRECTION('ref_axis',(-1.,0.,0.));
#181=DIRECTION('center_axis',(0.,0.,-1.));
#182=DIRECTION('ref_axis',(-1.,0.,0.));
#183=DIRECTION('',(0.,0.,-1.));
#184=DIRECTION('center_axis',(0.,0.,-1.));
#185=DIRECTION('ref_axis',(-1.,0.,0.));
#186=DIRECTION('',(0.,0.,1.));
#187=DIRECTION('center_axis',(0.,0.,-1.));
#188=DIRECTION('ref_axis',(-1.,0.,0.));
#189=DIRECTION('center_axis',(0.,0.,1.));
#190=DIRECTION('ref_axis',(1.,0.,0.));
#191=DIRECTION('center_axis',(-1.,0.,0.));
#192=DIRECTION('ref_axis',(0.,-1.,0.));
#193=DIRECTION('center_axis',(-1.,0.,0.));
#194=DIRECTION('ref_axis',(0.,-1.,0.));
#195=DIRECTION('',(-1.,0.,0.));
#196=DIRECTION('center_axis',(1.,0.,0.));
#197=DIRECTION('ref_axis',(0.,-1.,0.));
#198=DIRECTION('center_axis',(-1.,0.,0.));
#199=DIRECTION('ref_axis',(0.,-1.,0.));
#200=DIRECTION('center_axis',(-1.,0.,0.));
#201=DIRECTION('ref_axis',(0.,-1.,0.));
#202=DIRECTION('',(1.,0.,0.));
#203=DIRECTION('center_axis',(-1.,0.,0.));
#204=DIRECTION('ref_axis',(0.,-1.,0.));
#205=DIRECTION('center_axis',(1.,0.,0.));
#206=DIRECTION('ref_axis',(0.,0.,-1.));
#207=DIRECTION('center_axis',(1.,0.,0.));
#208=DIRECTION('ref_axis',(0.,0.,-1.));
#209=CARTESIAN_POINT('',(0.,0.,0.));
#210=CARTESIAN_POINT('Origin',(-1.20933871415801E-17,-0.75,0.));
#211=CARTESIAN_POINT('',(-0.205757138393601,-1.91700000000003,0.));
#212=CARTESIAN_POINT('',(0.205757138393601,-1.91700000000003,0.));
#213=CARTESIAN_POINT('',(3.4375,-1.917,0.));
#214=CARTESIAN_POINT('Origin',(0.,-0.75,0.));
#215=CARTESIAN_POINT('Origin',(0.,-0.75,3.094));
#216=CARTESIAN_POINT('',(1.185,-0.75,3.094));
#217=CARTESIAN_POINT('Origin',(0.,-0.75,3.094));
#218=CARTESIAN_POINT('',(1.185,-0.749999999999364,1.76419641763663));
#219=CARTESIAN_POINT('',(1.185,-0.75,3.094));
#220=CARTESIAN_POINT('Ctrl Pts',(0.205757138393787,-1.917,-1.09273919746571E-17));
#221=CARTESIAN_POINT('Ctrl Pts',(0.205757138393787,-1.917,0.0332808349441326));
#222=CARTESIAN_POINT('Ctrl Pts',(0.210638190817842,-1.91615461341589,0.0640306628829848));
#223=CARTESIAN_POINT('Ctrl Pts',(0.225868662391519,-1.91330063773218,0.122593235518293));
#224=CARTESIAN_POINT('Ctrl Pts',(0.236196103955617,-1.91128484433023,0.150411342465009));
#225=CARTESIAN_POINT('Ctrl Pts',(0.271624413138217,-1.90370191587091,0.231919758764323));
#226=CARTESIAN_POINT('Ctrl Pts',(0.300885902896131,-1.89663611257134,0.283618982586223));
#227=CARTESIAN_POINT('Ctrl Pts',(0.364022583012236,-1.87818183736818,0.387429037166755));
#228=CARTESIAN_POINT('Ctrl Pts',(0.397941099875386,-1.86681616642288,0.439041732603578));
#229=CARTESIAN_POINT('Ctrl Pts',(0.467861937173345,-1.83937627782064,0.542637220126005));
#230=CARTESIAN_POINT('Ctrl Pts',(0.503914686466146,-1.82330051968044,0.594585558666659));
#231=CARTESIAN_POINT('Ctrl Pts',(0.613316418415023,-1.76724335049095,0.751006689587971));
#232=CARTESIAN_POINT('Ctrl Pts',(0.687367471590815,-1.71955376379909,0.855346880069307));
#233=CARTESIAN_POINT('Ctrl Pts',(0.827365272550261,-1.60321465644163,1.05744323529908));
#234=CARTESIAN_POINT('Ctrl Pts',(0.893372420348576,-1.53456067694084,1.15515498550921));
#235=CARTESIAN_POINT('Ctrl Pts',(0.987109487607528,-1.40837188210221,1.30264640204372));
#236=CARTESIAN_POINT('Ctrl Pts',(1.02185155060852,-1.35383743752768,1.35964929465067));
#237=CARTESIAN_POINT('Ctrl Pts',(1.08392534726091,-1.23363838123768,1.46957761164449));
#238=CARTESIAN_POINT('Ctrl Pts',(1.11124454624231,-1.16796348620686,1.52249886931332));
#239=CARTESIAN_POINT('Ctrl Pts',(1.15415589551382,-1.0283560083437,1.620069614882));
#240=CARTESIAN_POINT('Ctrl Pts',(1.16975841287906,-0.954317694987224,1.6647795257124));
#241=CARTESIAN_POINT('Ctrl Pts',(1.18264289522891,-0.835963765023418,1.72577991066051));
#242=CARTESIAN_POINT('Ctrl Pts',(1.185,-0.79305997793436,1.74589064219756));
#243=CARTESIAN_POINT('Ctrl Pts',(1.185,-0.749999999998727,1.76419641763663));
#244=CARTESIAN_POINT('Ctrl Pts',(1.185,-0.749999999998727,1.76419641763663));
#245=CARTESIAN_POINT('Ctrl Pts',(1.185,-0.715589393999556,1.77882514845216));
#246=CARTESIAN_POINT('Ctrl Pts',(1.18349654228489,-0.681079886749383,1.79230319907796));
#247=CARTESIAN_POINT('Ctrl Pts',(1.17469945248942,-0.580520774387713,1.82834107188595));
#248=CARTESIAN_POINT('Ctrl Pts',(1.16292609883242,-0.511266287822021,1.84894095260907));
#249=CARTESIAN_POINT('Ctrl Pts',(1.12554722815372,-0.372462804481553,1.88182021522468));
#250=CARTESIAN_POINT('Ctrl Pts',(1.09993151133514,-0.302919905333087,1.89411374066942));
#251=CARTESIAN_POINT('Ctrl Pts',(1.03557441472501,-0.169211212093821,1.91070533623256));
#252=CARTESIAN_POINT('Ctrl Pts',(0.996761052538925,-0.104900529303934,1.91505026973351));
#253=CARTESIAN_POINT('Ctrl Pts',(0.908891722081873,0.0139383224734612,1.91787053259577));
#254=CARTESIAN_POINT('Ctrl Pts',(0.859833340701316,0.0684638267082768,1.91638284174368));
#255=CARTESIAN_POINT('Ctrl Pts',(0.7563096007621,0.165024649066042,1.91050091310413));
#256=CARTESIAN_POINT('Ctrl Pts',(0.698153857641862,0.210392854227811,1.90584523943846));
#257=CARTESIAN_POINT('Ctrl Pts',(0.572397348932678,0.290256948079424,1.89532639249948));
#258=CARTESIAN_POINT('Ctrl Pts',(0.504797393350681,0.324759087464922,1.88950102848585));
#259=CARTESIAN_POINT('Ctrl Pts',(0.364289151403594,0.380141948347677,1.87914203364042));
#260=CARTESIAN_POINT('Ctrl Pts',(0.291273715968598,0.401062317452315,1.87462940092965));
#261=CARTESIAN_POINT('Ctrl Pts',(0.144689914016045,0.428494660457993,1.86854989218474));
#262=CARTESIAN_POINT('Ctrl Pts',(0.0711198794594112,0.435,1.866993304755));
#263=CARTESIAN_POINT('Ctrl Pts',(-0.0711198794594112,0.435,1.866993304755));
#264=CARTESIAN_POINT('Ctrl Pts',(-0.144689914016045,0.428494660457993,1.86854989218474));
#265=CARTESIAN_POINT('Ctrl Pts',(-0.291273715968597,0.401062317452316,1.87462940092965));
#266=CARTESIAN_POINT('Ctrl Pts',(-0.364289151403594,0.380141948347677,1.87914203364042));
#267=CARTESIAN_POINT('Ctrl Pts',(-0.504797393350681,0.324759087464922,1.88950102848585));
#268=CARTESIAN_POINT('Ctrl Pts',(-0.572397348932678,0.290256948079424,1.89532639249948));
#269=CARTESIAN_POINT('Ctrl Pts',(-0.698153857641862,0.210392854227811,1.90584523943846));
#270=CARTESIAN_POINT('Ctrl Pts',(-0.7563096007621,0.165024649066042,1.91050091310413));
#271=CARTESIAN_POINT('Ctrl Pts',(-0.859833340701316,0.0684638267082768,
1.91638284174368));
#272=CARTESIAN_POINT('Ctrl Pts',(-0.908891722081873,0.0139383224734612,
1.91787053259577));
#273=CARTESIAN_POINT('Ctrl Pts',(-0.996761052538925,-0.104900529303934,
1.91505026973351));
#274=CARTESIAN_POINT('Ctrl Pts',(-1.03557441472502,-0.169211212093821,1.91070533623256));
#275=CARTESIAN_POINT('Ctrl Pts',(-1.09993151133514,-0.302919905333088,1.89411374066942));
#276=CARTESIAN_POINT('Ctrl Pts',(-1.12554722815373,-0.372462804481553,1.88182021522468));
#277=CARTESIAN_POINT('Ctrl Pts',(-1.16292609883242,-0.511266287822022,1.84894095260907));
#278=CARTESIAN_POINT('Ctrl Pts',(-1.17469945248942,-0.580520774387713,1.82834107188595));
#279=CARTESIAN_POINT('Ctrl Pts',(-1.18725702142407,-0.724065743786423,1.77689814217102));
#280=CARTESIAN_POINT('Ctrl Pts',(-1.18632132200104,-0.80217457173304,1.7431950805533));
#281=CARTESIAN_POINT('Ctrl Pts',(-1.16975841287906,-0.954317694987224,1.6647795257124));
#282=CARTESIAN_POINT('Ctrl Pts',(-1.15415589551382,-1.0283560083437,1.620069614882));
#283=CARTESIAN_POINT('Ctrl Pts',(-1.11124454624231,-1.16796348620686,1.52249886931332));
#284=CARTESIAN_POINT('Ctrl Pts',(-1.08392534726091,-1.23363838123768,1.46957761164449));
#285=CARTESIAN_POINT('Ctrl Pts',(-1.02185155060852,-1.35383743752768,1.35964929465067));
#286=CARTESIAN_POINT('Ctrl Pts',(-0.987109487607529,-1.40837188210221,1.30264640204372));
#287=CARTESIAN_POINT('Ctrl Pts',(-0.893372420348576,-1.53456067694084,1.15515498550921));
#288=CARTESIAN_POINT('Ctrl Pts',(-0.827365272550262,-1.60321465644163,1.05744323529908));
#289=CARTESIAN_POINT('Ctrl Pts',(-0.687367471590816,-1.71955376379909,0.855346880069308));
#290=CARTESIAN_POINT('Ctrl Pts',(-0.613316418415023,-1.76724335049095,0.751006689587972));
#291=CARTESIAN_POINT('Ctrl Pts',(-0.503914686466146,-1.82330051968044,0.59458555866666));
#292=CARTESIAN_POINT('Ctrl Pts',(-0.467861937173345,-1.83937627782064,0.542637220126005));
#293=CARTESIAN_POINT('Ctrl Pts',(-0.397941099875386,-1.86681616642288,0.439041732603577));
#294=CARTESIAN_POINT('Ctrl Pts',(-0.364022583012236,-1.87818183736818,0.387429037166754));
#295=CARTESIAN_POINT('Ctrl Pts',(-0.300885902896131,-1.89663611257134,0.283618982586223));
#296=CARTESIAN_POINT('Ctrl Pts',(-0.271624413138217,-1.90370191587091,0.231919758764322));
#297=CARTESIAN_POINT('Ctrl Pts',(-0.236196103955617,-1.91128484433023,0.150411342465009));
#298=CARTESIAN_POINT('Ctrl Pts',(-0.225868662391519,-1.91330063773218,0.122593235518293));
#299=CARTESIAN_POINT('Ctrl Pts',(-0.210638190817842,-1.91615461341589,0.0640306628829847));
#300=CARTESIAN_POINT('Ctrl Pts',(-0.205757138393787,-1.917,0.0332808349441325));
#301=CARTESIAN_POINT('Ctrl Pts',(-0.205757138393787,-1.917,-3.27821759239712E-17));
#302=CARTESIAN_POINT('Origin',(0.,-0.75,3.094));
#303=CARTESIAN_POINT('',(0.,-2.,0.));
#304=CARTESIAN_POINT('',(1.25,-0.75,1.85404962177392));
#305=CARTESIAN_POINT('Ctrl Pts',(0.,-2.,0.));
#306=CARTESIAN_POINT('Ctrl Pts',(-0.0800760761751509,-2.,0.101289114721048));
#307=CARTESIAN_POINT('Ctrl Pts',(-0.163683693287223,-1.99220602807926,0.207026710862923));
#308=CARTESIAN_POINT('Ctrl Pts',(-0.331952085448669,-1.9581705092792,0.421085709876975));
#309=CARTESIAN_POINT('Ctrl Pts',(-0.416609632008391,-1.9319352241406,0.529410646162046));
#310=CARTESIAN_POINT('Ctrl Pts',(-0.580987547482091,-1.86039980099731,0.742672313834435));
#311=CARTESIAN_POINT('Ctrl Pts',(-0.660752624754273,-1.81507712901256,0.847673627088335));
#312=CARTESIAN_POINT('Ctrl Pts',(-0.809727109748699,-1.70672636055215,1.04887591903214));
#313=CARTESIAN_POINT('Ctrl Pts',(-0.878926833975207,-1.64368497191751,1.14507690920569));
#314=CARTESIAN_POINT('Ctrl Pts',(-0.981949724775464,-1.52605748830788,1.29501976765107));
#315=CARTESIAN_POINT('Ctrl Pts',(-1.02283308992452,-1.47202427269874,1.35658644756252));
#316=CARTESIAN_POINT('Ctrl Pts',(-1.09777965379387,-1.35198539160858,1.47625124914706));
#317=CARTESIAN_POINT('Ctrl Pts',(-1.13183299087201,-1.28596960780746,1.53434539680708));
#318=CARTESIAN_POINT('Ctrl Pts',(-1.1885674640672,-1.14448282446296,1.64258723931718));
#319=CARTESIAN_POINT('Ctrl Pts',(-1.21126555797743,-1.06891727765737,1.69279264605578));
#320=CARTESIAN_POINT('Ctrl Pts',(-1.24199377060461,-0.912246589154314,1.78211594739524));
#321=CARTESIAN_POINT('Ctrl Pts',(-1.25,-0.83113414225033,1.82122924524617));
#322=CARTESIAN_POINT('Ctrl Pts',(-1.25,-0.676369488857949,1.88383463006496));
#323=CARTESIAN_POINT('Ctrl Pts',(-1.24337296045973,-0.598611317135459,1.91004994956283));
#324=CARTESIAN_POINT('Ctrl Pts',(-1.21394592169654,-0.44140617080752,1.95237980705058));
#325=CARTESIAN_POINT('Ctrl Pts',(-1.19113018359732,-0.361965322920872,1.96850615460121));
#326=CARTESIAN_POINT('Ctrl Pts',(-1.12950849262995,-0.208176551127509,1.99065262517217));
#327=CARTESIAN_POINT('Ctrl Pts',(-1.09061899026595,-0.133631048394128,1.99673338072803));
#328=CARTESIAN_POINT('Ctrl Pts',(-0.999756674886644,0.00488214813400871,
2.00119404741293));
#329=CARTESIAN_POINT('Ctrl Pts',(-0.947780174515957,0.0688459340882844,
1.9996200742824));
#330=CARTESIAN_POINT('Ctrl Pts',(-0.836434026932071,0.182319324955028,1.99248664449969));
#331=CARTESIAN_POINT('Ctrl Pts',(-0.773394174373319,0.235534103374179,1.98664705968323));
#332=CARTESIAN_POINT('Ctrl Pts',(-0.636020429363221,0.329302566867361,1.97327207281815));
#333=CARTESIAN_POINT('Ctrl Pts',(-0.561688012152624,0.369865201212208,1.96578430355008));
#334=CARTESIAN_POINT('Ctrl Pts',(-0.406407159592844,0.435084199196387,1.95238573650505));
#335=CARTESIAN_POINT('Ctrl Pts',(-0.325327435713495,0.459791726871082,1.94650220791957));
#336=CARTESIAN_POINT('Ctrl Pts',(-0.16198110817877,0.492254435632715,1.9385470973611));
#337=CARTESIAN_POINT('Ctrl Pts',(-0.0797118069973329,0.5,1.93649167310371));
#338=CARTESIAN_POINT('Ctrl Pts',(0.0797118069973329,0.5,1.93649167310371));
#339=CARTESIAN_POINT('Ctrl Pts',(0.16198110817877,0.492254435632715,1.9385470973611));
#340=CARTESIAN_POINT('Ctrl Pts',(0.325327435713495,0.459791726871082,1.94650220791957));
#341=CARTESIAN_POINT('Ctrl Pts',(0.406407159592845,0.435084199196387,1.95238573650505));
#342=CARTESIAN_POINT('Ctrl Pts',(0.561688012152624,0.369865201212208,1.96578430355008));
#343=CARTESIAN_POINT('Ctrl Pts',(0.636020429363221,0.329302566867361,1.97327207281815));
#344=CARTESIAN_POINT('Ctrl Pts',(0.773394174373319,0.235534103374179,1.98664705968323));
#345=CARTESIAN_POINT('Ctrl Pts',(0.836434026932071,0.182319324955028,1.99248664449969));
#346=CARTESIAN_POINT('Ctrl Pts',(0.947780174515957,0.0688459340882846,1.9996200742824));
#347=CARTESIAN_POINT('Ctrl Pts',(0.999756674886644,0.00488214813400867,
2.00119404741293));
#348=CARTESIAN_POINT('Ctrl Pts',(1.09061899026595,-0.133631048394128,1.99673338072803));
#349=CARTESIAN_POINT('Ctrl Pts',(1.12950849262995,-0.208176551127509,1.99065262517217));
#350=CARTESIAN_POINT('Ctrl Pts',(1.19113018359732,-0.361965322920872,1.96850615460121));
#351=CARTESIAN_POINT('Ctrl Pts',(1.21394592169654,-0.44140617080752,1.95237980705058));
#352=CARTESIAN_POINT('Ctrl Pts',(1.24337296045973,-0.598611317135459,1.91004994956283));
#353=CARTESIAN_POINT('Ctrl Pts',(1.25,-0.676369488857949,1.88383463006496));
#354=CARTESIAN_POINT('Ctrl Pts',(1.25,-0.75,1.85404962177392));
#355=CARTESIAN_POINT('Ctrl Pts',(1.25,-0.75,1.85404962177392));
#356=CARTESIAN_POINT('Ctrl Pts',(1.25,-0.831134142250329,1.82122924524617));
#357=CARTESIAN_POINT('Ctrl Pts',(1.24199377060461,-0.912246589154314,1.78211594739524));
#358=CARTESIAN_POINT('Ctrl Pts',(1.21126555797743,-1.06891727765737,1.69279264605578));
#359=CARTESIAN_POINT('Ctrl Pts',(1.1885674640672,-1.14448282446296,1.64258723931718));
#360=CARTESIAN_POINT('Ctrl Pts',(1.13183299087201,-1.28596960780746,1.53434539680708));
#361=CARTESIAN_POINT('Ctrl Pts',(1.09777965379386,-1.35198539160858,1.47625124914706));
#362=CARTESIAN_POINT('Ctrl Pts',(1.02283308992452,-1.47202427269874,1.35658644756252));
#363=CARTESIAN_POINT('Ctrl Pts',(0.981949724775464,-1.52605748830788,1.29501976765107));
#364=CARTESIAN_POINT('Ctrl Pts',(0.878926833975207,-1.64368497191751,1.14507690920569));
#365=CARTESIAN_POINT('Ctrl Pts',(0.8097271097487,-1.70672636055215,1.04887591903214));
#366=CARTESIAN_POINT('Ctrl Pts',(0.660752624754273,-1.81507712901256,0.847673627088335));
#367=CARTESIAN_POINT('Ctrl Pts',(0.580987547482091,-1.86039980099731,0.742672313834436));
#368=CARTESIAN_POINT('Ctrl Pts',(0.416609632008391,-1.9319352241406,0.529410646162045));
#369=CARTESIAN_POINT('Ctrl Pts',(0.331952085448669,-1.9581705092792,0.421085709876974));
#370=CARTESIAN_POINT('Ctrl Pts',(0.163683693287223,-1.99220602807926,0.207026710862922));
#371=CARTESIAN_POINT('Ctrl Pts',(0.0800760761751507,-2.,0.101289114721048));
#372=CARTESIAN_POINT('Ctrl Pts',(0.,-2.,0.));
#373=CARTESIAN_POINT('',(1.25,-0.75,3.094));
#374=CARTESIAN_POINT('',(1.25,-0.75,3.094));
#375=CARTESIAN_POINT('Origin',(0.,-0.75,3.094));
#376=CARTESIAN_POINT('Origin',(-4.9468185594953E-17,-0.75,3.094));
#377=CARTESIAN_POINT('Origin',(3.4375,0.,0.));
#378=CARTESIAN_POINT('',(3.4375,1.917,2.34764791396548E-16));
#379=CARTESIAN_POINT('Origin',(3.4375,0.,0.));
#380=CARTESIAN_POINT('',(-3.4375,1.917,2.34764791396548E-16));
#381=CARTESIAN_POINT('',(3.4375,1.917,-2.34764791396548E-16));
#382=CARTESIAN_POINT('Origin',(-3.4375,0.,0.));
#383=CARTESIAN_POINT('Origin',(3.4375,0.,0.));
#384=CARTESIAN_POINT('',(-3.4375,2.,-2.44929359829471E-16));
#385=CARTESIAN_POINT('Origin',(-3.4375,0.,0.));
#386=CARTESIAN_POINT('',(3.4375,2.,2.44929359829471E-16));
#387=CARTESIAN_POINT('',(3.4375,2.,-2.44929359829471E-16));
#388=CARTESIAN_POINT('Origin',(3.4375,0.,0.));
#389=CARTESIAN_POINT('Origin',(3.4375,-1.12189400245376E-16,-4.58893101297934E-17));
#390=CARTESIAN_POINT('Origin',(-3.4375,0.,0.));
#391=UNCERTAINTY_MEASURE_WITH_UNIT(LENGTH_MEASURE(0.000393700787401575),
#396,'DISTANCE_ACCURACY_VALUE',
'Maximum model space distance between geometric entities at asserted c
onnectivities');
#392=UNCERTAINTY_MEASURE_WITH_UNIT(LENGTH_MEASURE(0.000393700787401575),
#396,'DISTANCE_ACCURACY_VALUE',
'Maximum model space distance between geometric entities at asserted c
onnectivities');
#393=(
GEOMETRIC_REPRESENTATION_CONTEXT(3)
GLOBAL_UNCERTAINTY_ASSIGNED_CONTEXT((#391))
GLOBAL_UNIT_ASSIGNED_CONTEXT((#396,#400,#401))
REPRESENTATION_CONTEXT('','3D')
);
#394=(
GEOMETRIC_REPRESENTATION_CONTEXT(3)
GLOBAL_UNCERTAINTY_ASSIGNED_CONTEXT((#392))
GLOBAL_UNIT_ASSIGNED_CONTEXT((#396,#400,#401))
REPRESENTATION_CONTEXT('','3D')
);
#395=DIMENSIONAL_EXPONENTS(1.,0.,0.,0.,0.,0.,0.);
#396=(
CONVERSION_BASED_UNIT('inch',#399)
LENGTH_UNIT()
NAMED_UNIT(#395)
);
#397=(
LENGTH_UNIT()
NAMED_UNIT(*)
SI_UNIT(.MILLI.,.METRE.)
);
#398=(
LENGTH_UNIT()
NAMED_UNIT(*)
SI_UNIT(.CENTI.,.METRE.)
);
#399=LENGTH_MEASURE_WITH_UNIT(LENGTH_MEASURE(25.4),#397);
#400=(
NAMED_UNIT(*)
PLANE_ANGLE_UNIT()
SI_UNIT($,.RADIAN.)
);
#401=(
NAMED_UNIT(*)
SI_UNIT($,.STERADIAN.)
SOLID_ANGLE_UNIT()
);
#402=SHAPE_DEFINITION_REPRESENTATION(#403,#404);
#403=PRODUCT_DEFINITION_SHAPE('',$,#406);
#404=SHAPE_REPRESENTATION('',(#156),#393);
#405=PRODUCT_DEFINITION_CONTEXT('part definition',#410,'design');
#406=PRODUCT_DEFINITION('7ERWWW-4X2.5','7ERWWW-4X2.5',#407,#405);
#407=PRODUCT_DEFINITION_FORMATION('',$,#412);
#408=PRODUCT_RELATED_PRODUCT_CATEGORY('7ERWWW-4X2.5','7ERWWW-4X2.5',(#412));
#409=APPLICATION_PROTOCOL_DEFINITION('international standard',
'automotive_design',2009,#410);
#410=APPLICATION_CONTEXT(
'Core Data for Automotive Mechanical Design Process');
#411=PRODUCT_CONTEXT('part definition',#410,'mechanical');
#412=PRODUCT('7ERWWW-4X2.5','7ERWWW-4X2.5',$,(#411));
#413=PRESENTATION_STYLE_ASSIGNMENT((#414));
#414=SURFACE_STYLE_USAGE(.BOTH.,#417);
#415=SURFACE_STYLE_RENDERING_WITH_PROPERTIES($,#421,(#416));
#416=SURFACE_STYLE_TRANSPARENT(0.);
#417=SURFACE_SIDE_STYLE('',(#418,#415));
#418=SURFACE_STYLE_FILL_AREA(#419);
#419=FILL_AREA_STYLE('',(#420));
#420=FILL_AREA_STYLE_COLOUR('',#421);
#421=COLOUR_RGB('',0.749019607843137,0.749019607843137,0.749019607843137);
ENDSEC;
END-ISO-10303-21;
