ISO-10303-21;
HEADER;
/* Generated by software containing ST-Developer
 * from STEP Tools, Inc. (www.steptools.com) 
 */

FILE_DESCRIPTION(
/* description */ (''),
/* implementation_level */ '2;1');

FILE_NAME(
/* name */ 
'W:\\AUTOCAD\\AutoCad - Projects\\Numbered\\7WWW\\7WWW STEP FILE\\7WWW
-6.stp',
/* time_stamp */ '2022-05-10T13:45:25-04:00',
/* author */ ('marcus'),
/* organization */ (''),
/* preprocessor_version */ 'ST-DEVELOPER v18.1',
/* originating_system */ 'Autodesk Inventor 2020',
/* authorisation */ '');

FILE_SCHEMA (('AUTOMOTIVE_DESIGN { 1 0 10303 214 3 1 1 }'));
ENDSEC;

DATA;
#10=MECHANICAL_DESIGN_GEOMETRIC_PRESENTATION_REPRESENTATION('',(#13),#315);
#11=SHAPE_REPRESENTATION_RELATIONSHIP('SRR','None',#325,#12);
#12=ADVANCED_BREP_SHAPE_REPRESENTATION('',(#14),#314);
#13=STYLED_ITEM('',(#334),#14);
#14=MANIFOLD_SOLID_BREP('Solid2',#163);
#15=FACE_BOUND('',#32,.T.);
#16=FACE_BOUND('',#35,.T.);
#17=FACE_BOUND('',#37,.T.);
#18=FACE_BOUND('',#39,.T.);
#19=FACE_BOUND('',#41,.T.);
#20=PLANE('',#189);
#21=PLANE('',#201);
#22=PLANE('',#207);
#23=FACE_OUTER_BOUND('',#30,.T.);
#24=FACE_OUTER_BOUND('',#31,.T.);
#25=FACE_OUTER_BOUND('',#33,.T.);
#26=FACE_OUTER_BOUND('',#34,.T.);
#27=FACE_OUTER_BOUND('',#36,.T.);
#28=FACE_OUTER_BOUND('',#38,.T.);
#29=FACE_OUTER_BOUND('',#40,.T.);
#30=EDGE_LOOP('',(#108,#109,#110,#111,#112,#113,#114));
#31=EDGE_LOOP('',(#115,#116));
#32=EDGE_LOOP('',(#117,#118));
#33=EDGE_LOOP('',(#119,#120,#121,#122,#123,#124,#125));
#34=EDGE_LOOP('',(#126,#127,#128,#129,#130,#131));
#35=EDGE_LOOP('',(#132,#133,#134));
#36=EDGE_LOOP('',(#135,#136));
#37=EDGE_LOOP('',(#137,#138));
#38=EDGE_LOOP('',(#139,#140,#141,#142,#143,#144));
#39=EDGE_LOOP('',(#145,#146,#147));
#40=EDGE_LOOP('',(#148,#149));
#41=EDGE_LOOP('',(#150,#151));
#42=ELLIPSE('',#185,4.08849140882062,2.891);
#43=ELLIPSE('',#186,4.08849140882062,2.891);
#44=ELLIPSE('',#187,4.08849140882062,2.891);
#45=ELLIPSE('',#193,4.24264068711928,3.);
#46=ELLIPSE('',#194,4.24264068711929,3.);
#47=ELLIPSE('',#195,4.24264068711928,3.);
#48=LINE('',#270,#52);
#49=LINE('',#284,#53);
#50=LINE('',#296,#54);
#51=LINE('',#307,#55);
#52=VECTOR('',#214,2.891);
#53=VECTOR('',#231,3.);
#54=VECTOR('',#244,3.);
#55=VECTOR('',#257,2.891);
#56=CIRCLE('',#184,2.891);
#57=CIRCLE('',#188,2.891);
#58=CIRCLE('',#190,3.);
#59=CIRCLE('',#191,3.);
#60=CIRCLE('',#197,3.);
#61=CIRCLE('',#198,3.);
#62=CIRCLE('',#199,3.);
#63=CIRCLE('',#200,3.);
#64=CIRCLE('',#202,2.891);
#65=CIRCLE('',#203,2.891);
#66=CIRCLE('',#205,2.891);
#67=CIRCLE('',#206,2.891);
#68=VERTEX_POINT('',#266);
#69=VERTEX_POINT('',#267);
#70=VERTEX_POINT('',#269);
#71=VERTEX_POINT('',#271);
#72=VERTEX_POINT('',#273);
#73=VERTEX_POINT('',#278);
#74=VERTEX_POINT('',#279);
#75=VERTEX_POINT('',#283);
#76=VERTEX_POINT('',#285);
#77=VERTEX_POINT('',#287);
#78=VERTEX_POINT('',#291);
#79=VERTEX_POINT('',#292);
#80=VERTEX_POINT('',#295);
#81=VERTEX_POINT('',#297);
#82=VERTEX_POINT('',#301);
#83=VERTEX_POINT('',#302);
#84=VERTEX_POINT('',#306);
#85=VERTEX_POINT('',#308);
#86=EDGE_CURVE('',#68,#69,#56,.T.);
#87=EDGE_CURVE('',#69,#70,#48,.T.);
#88=EDGE_CURVE('',#71,#70,#42,.T.);
#89=EDGE_CURVE('',#72,#71,#43,.T.);
#90=EDGE_CURVE('',#70,#72,#44,.T.);
#91=EDGE_CURVE('',#69,#68,#57,.T.);
#92=EDGE_CURVE('',#73,#74,#58,.T.);
#93=EDGE_CURVE('',#74,#73,#59,.T.);
#94=EDGE_CURVE('',#74,#75,#49,.T.);
#95=EDGE_CURVE('',#76,#75,#45,.T.);
#96=EDGE_CURVE('',#77,#76,#46,.T.);
#97=EDGE_CURVE('',#75,#77,#47,.T.);
#98=EDGE_CURVE('',#78,#79,#60,.T.);
#99=EDGE_CURVE('',#79,#78,#61,.T.);
#100=EDGE_CURVE('',#79,#80,#50,.T.);
#101=EDGE_CURVE('',#80,#81,#62,.T.);
#102=EDGE_CURVE('',#81,#80,#63,.T.);
#103=EDGE_CURVE('',#82,#83,#64,.T.);
#104=EDGE_CURVE('',#83,#82,#65,.T.);
#105=EDGE_CURVE('',#83,#84,#51,.T.);
#106=EDGE_CURVE('',#85,#84,#66,.T.);
#107=EDGE_CURVE('',#84,#85,#67,.T.);
#108=ORIENTED_EDGE('',*,*,#86,.T.);
#109=ORIENTED_EDGE('',*,*,#87,.T.);
#110=ORIENTED_EDGE('',*,*,#88,.F.);
#111=ORIENTED_EDGE('',*,*,#89,.F.);
#112=ORIENTED_EDGE('',*,*,#90,.F.);
#113=ORIENTED_EDGE('',*,*,#87,.F.);
#114=ORIENTED_EDGE('',*,*,#91,.T.);
#115=ORIENTED_EDGE('',*,*,#92,.T.);
#116=ORIENTED_EDGE('',*,*,#93,.T.);
#117=ORIENTED_EDGE('',*,*,#86,.F.);
#118=ORIENTED_EDGE('',*,*,#91,.F.);
#119=ORIENTED_EDGE('',*,*,#92,.F.);
#120=ORIENTED_EDGE('',*,*,#93,.F.);
#121=ORIENTED_EDGE('',*,*,#94,.T.);
#122=ORIENTED_EDGE('',*,*,#95,.F.);
#123=ORIENTED_EDGE('',*,*,#96,.F.);
#124=ORIENTED_EDGE('',*,*,#97,.F.);
#125=ORIENTED_EDGE('',*,*,#94,.F.);
#126=ORIENTED_EDGE('',*,*,#98,.F.);
#127=ORIENTED_EDGE('',*,*,#99,.F.);
#128=ORIENTED_EDGE('',*,*,#100,.T.);
#129=ORIENTED_EDGE('',*,*,#101,.T.);
#130=ORIENTED_EDGE('',*,*,#102,.T.);
#131=ORIENTED_EDGE('',*,*,#100,.F.);
#132=ORIENTED_EDGE('',*,*,#95,.T.);
#133=ORIENTED_EDGE('',*,*,#97,.T.);
#134=ORIENTED_EDGE('',*,*,#96,.T.);
#135=ORIENTED_EDGE('',*,*,#98,.T.);
#136=ORIENTED_EDGE('',*,*,#99,.T.);
#137=ORIENTED_EDGE('',*,*,#103,.F.);
#138=ORIENTED_EDGE('',*,*,#104,.F.);
#139=ORIENTED_EDGE('',*,*,#103,.T.);
#140=ORIENTED_EDGE('',*,*,#105,.T.);
#141=ORIENTED_EDGE('',*,*,#106,.F.);
#142=ORIENTED_EDGE('',*,*,#107,.F.);
#143=ORIENTED_EDGE('',*,*,#105,.F.);
#144=ORIENTED_EDGE('',*,*,#104,.T.);
#145=ORIENTED_EDGE('',*,*,#89,.T.);
#146=ORIENTED_EDGE('',*,*,#88,.T.);
#147=ORIENTED_EDGE('',*,*,#90,.T.);
#148=ORIENTED_EDGE('',*,*,#102,.F.);
#149=ORIENTED_EDGE('',*,*,#101,.F.);
#150=ORIENTED_EDGE('',*,*,#106,.T.);
#151=ORIENTED_EDGE('',*,*,#107,.T.);
#152=CYLINDRICAL_SURFACE('',#183,2.891);
#153=CYLINDRICAL_SURFACE('',#192,3.);
#154=CYLINDRICAL_SURFACE('',#196,3.);
#155=CYLINDRICAL_SURFACE('',#204,2.891);
#156=ADVANCED_FACE('',(#23),#152,.F.);
#157=ADVANCED_FACE('',(#24,#15),#20,.T.);
#158=ADVANCED_FACE('',(#25),#153,.T.);
#159=ADVANCED_FACE('',(#26,#16),#154,.T.);
#160=ADVANCED_FACE('',(#27,#17),#21,.T.);
#161=ADVANCED_FACE('',(#28,#18),#155,.F.);
#162=ADVANCED_FACE('',(#29,#19),#22,.T.);
#163=CLOSED_SHELL('',(#156,#157,#158,#159,#160,#161,#162));
#164=DERIVED_UNIT_ELEMENT(#166,1.);
#165=DERIVED_UNIT_ELEMENT(#319,3.);
#166=(
MASS_UNIT()
NAMED_UNIT(*)
SI_UNIT($,.GRAM.)
);
#167=DERIVED_UNIT((#164,#165));
#168=MEASURE_REPRESENTATION_ITEM('density measure',
POSITIVE_RATIO_MEASURE(1.),#167);
#169=PROPERTY_DEFINITION_REPRESENTATION(#174,#171);
#170=PROPERTY_DEFINITION_REPRESENTATION(#175,#172);
#171=REPRESENTATION('material name',(#173),#314);
#172=REPRESENTATION('density',(#168),#314);
#173=DESCRIPTIVE_REPRESENTATION_ITEM('Generic','Generic');
#174=PROPERTY_DEFINITION('material property','material name',#327);
#175=PROPERTY_DEFINITION('material property','density of part',#327);
#176=DATE_TIME_ROLE('creation_date');
#177=APPLIED_DATE_AND_TIME_ASSIGNMENT(#178,#176,(#327));
#178=DATE_AND_TIME(#179,#180);
#179=CALENDAR_DATE(2016,9,3);
#180=LOCAL_TIME(18,58,42.,#181);
#181=COORDINATED_UNIVERSAL_TIME_OFFSET(0,0,.BEHIND.);
#182=AXIS2_PLACEMENT_3D('placement',#264,#208,#209);
#183=AXIS2_PLACEMENT_3D('',#265,#210,#211);
#184=AXIS2_PLACEMENT_3D('',#268,#212,#213);
#185=AXIS2_PLACEMENT_3D('',#272,#215,#216);
#186=AXIS2_PLACEMENT_3D('',#274,#217,#218);
#187=AXIS2_PLACEMENT_3D('',#275,#219,#220);
#188=AXIS2_PLACEMENT_3D('',#276,#221,#222);
#189=AXIS2_PLACEMENT_3D('',#277,#223,#224);
#190=AXIS2_PLACEMENT_3D('',#280,#225,#226);
#191=AXIS2_PLACEMENT_3D('',#281,#227,#228);
#192=AXIS2_PLACEMENT_3D('',#282,#229,#230);
#193=AXIS2_PLACEMENT_3D('',#286,#232,#233);
#194=AXIS2_PLACEMENT_3D('',#288,#234,#235);
#195=AXIS2_PLACEMENT_3D('',#289,#236,#237);
#196=AXIS2_PLACEMENT_3D('',#290,#238,#239);
#197=AXIS2_PLACEMENT_3D('',#293,#240,#241);
#198=AXIS2_PLACEMENT_3D('',#294,#242,#243);
#199=AXIS2_PLACEMENT_3D('',#298,#245,#246);
#200=AXIS2_PLACEMENT_3D('',#299,#247,#248);
#201=AXIS2_PLACEMENT_3D('',#300,#249,#250);
#202=AXIS2_PLACEMENT_3D('',#303,#251,#252);
#203=AXIS2_PLACEMENT_3D('',#304,#253,#254);
#204=AXIS2_PLACEMENT_3D('',#305,#255,#256);
#205=AXIS2_PLACEMENT_3D('',#309,#258,#259);
#206=AXIS2_PLACEMENT_3D('',#310,#260,#261);
#207=AXIS2_PLACEMENT_3D('',#311,#262,#263);
#208=DIRECTION('axis',(0.,0.,1.));
#209=DIRECTION('refdir',(1.,0.,0.));
#210=DIRECTION('center_axis',(-5.32285404632184E-16,1.,0.));
#211=DIRECTION('ref_axis',(-1.,-4.66235390918701E-16,0.));
#212=DIRECTION('center_axis',(-5.32285404632184E-16,1.,0.));
#213=DIRECTION('ref_axis',(1.,5.32285404632184E-16,0.));
#214=DIRECTION('',(5.32285404632184E-16,-1.,0.));
#215=DIRECTION('center_axis',(-0.707106781186548,0.707106781186547,0.));
#216=DIRECTION('ref_axis',(-0.707106781186547,-0.707106781186548,0.));
#217=DIRECTION('center_axis',(0.707106781186547,0.707106781186548,0.));
#218=DIRECTION('ref_axis',(-0.707106781186548,0.707106781186547,0.));
#219=DIRECTION('center_axis',(-0.707106781186548,0.707106781186547,0.));
#220=DIRECTION('ref_axis',(-0.707106781186547,-0.707106781186548,0.));
#221=DIRECTION('center_axis',(-5.32285404632184E-16,1.,0.));
#222=DIRECTION('ref_axis',(1.,5.32285404632184E-16,0.));
#223=DIRECTION('center_axis',(-5.32285404632184E-16,1.,0.));
#224=DIRECTION('ref_axis',(0.,0.,1.));
#225=DIRECTION('center_axis',(-5.32285404632184E-16,1.,0.));
#226=DIRECTION('ref_axis',(1.,5.32285404632184E-16,0.));
#227=DIRECTION('center_axis',(-5.32285404632184E-16,1.,0.));
#228=DIRECTION('ref_axis',(1.,5.32285404632184E-16,0.));
#229=DIRECTION('center_axis',(-5.32285404632184E-16,1.,0.));
#230=DIRECTION('ref_axis',(-1.,-4.66235390918701E-16,0.));
#231=DIRECTION('',(5.32285404632184E-16,-1.,0.));
#232=DIRECTION('center_axis',(0.707106781186548,-0.707106781186547,0.));
#233=DIRECTION('ref_axis',(-0.707106781186547,-0.707106781186548,0.));
#234=DIRECTION('center_axis',(-0.707106781186547,-0.707106781186548,0.));
#235=DIRECTION('ref_axis',(-0.707106781186548,0.707106781186547,0.));
#236=DIRECTION('center_axis',(0.707106781186548,-0.707106781186547,0.));
#237=DIRECTION('ref_axis',(-0.707106781186547,-0.707106781186548,0.));
#238=DIRECTION('center_axis',(1.,3.67394039744206E-16,0.));
#239=DIRECTION('ref_axis',(-4.66235390918701E-16,1.,0.));
#240=DIRECTION('center_axis',(1.,3.67394039744206E-16,0.));
#241=DIRECTION('ref_axis',(0.,0.,-1.));
#242=DIRECTION('center_axis',(1.,3.67394039744206E-16,0.));
#243=DIRECTION('ref_axis',(0.,0.,-1.));
#244=DIRECTION('',(-1.,-3.67394039744206E-16,0.));
#245=DIRECTION('center_axis',(1.,3.67394039744206E-16,0.));
#246=DIRECTION('ref_axis',(0.,0.,-1.));
#247=DIRECTION('center_axis',(1.,3.67394039744206E-16,0.));
#248=DIRECTION('ref_axis',(0.,0.,-1.));
#249=DIRECTION('center_axis',(1.,3.67394039744206E-16,0.));
#250=DIRECTION('ref_axis',(0.,0.,-1.));
#251=DIRECTION('center_axis',(1.,3.67394039744206E-16,0.));
#252=DIRECTION('ref_axis',(0.,0.,-1.));
#253=DIRECTION('center_axis',(1.,3.67394039744206E-16,0.));
#254=DIRECTION('ref_axis',(0.,0.,-1.));
#255=DIRECTION('center_axis',(1.,3.67394039744206E-16,0.));
#256=DIRECTION('ref_axis',(-4.66235390918701E-16,1.,0.));
#257=DIRECTION('',(-1.,-3.67394039744206E-16,0.));
#258=DIRECTION('center_axis',(1.,3.67394039744206E-16,0.));
#259=DIRECTION('ref_axis',(0.,0.,-1.));
#260=DIRECTION('center_axis',(1.,3.67394039744206E-16,0.));
#261=DIRECTION('ref_axis',(0.,0.,-1.));
#262=DIRECTION('center_axis',(-1.,-3.67394039744206E-16,0.));
#263=DIRECTION('ref_axis',(0.,0.,1.));
#264=CARTESIAN_POINT('',(0.,0.,0.));
#265=CARTESIAN_POINT('Origin',(-2.51330015417112E-16,2.8125,0.));
#266=CARTESIAN_POINT('',(-2.891,5.625,0.));
#267=CARTESIAN_POINT('',(2.891,5.625,-3.540453896335E-16));
#268=CARTESIAN_POINT('Origin',(-1.74838271594513E-15,5.625,0.));
#269=CARTESIAN_POINT('',(2.891,2.891,-3.540453896335E-16));
#270=CARTESIAN_POINT('',(2.891,2.8125,-3.540453896335E-16));
#271=CARTESIAN_POINT('',(1.3987061727561E-15,-9.06916092872028E-47,2.891));
#272=CARTESIAN_POINT('Origin',(1.3987061727561E-15,1.3987061727561E-15,
0.));
#273=CARTESIAN_POINT('',(1.3987061727561E-15,-9.06916092872028E-47,-2.891));
#274=CARTESIAN_POINT('Origin',(1.3987061727561E-15,0.,0.));
#275=CARTESIAN_POINT('Origin',(1.3987061727561E-15,1.3987061727561E-15,
0.));
#276=CARTESIAN_POINT('Origin',(-1.74838271594513E-15,5.625,0.));
#277=CARTESIAN_POINT('Origin',(-2.891,5.625,0.));
#278=CARTESIAN_POINT('',(-3.,5.625,0.));
#279=CARTESIAN_POINT('',(3.,5.625,-3.67394039744206E-16));
#280=CARTESIAN_POINT('Origin',(-1.74838271594513E-15,5.625,0.));
#281=CARTESIAN_POINT('Origin',(-1.74838271594513E-15,5.625,0.));
#282=CARTESIAN_POINT('Origin',(-2.51330015417113E-16,2.8125,0.));
#283=CARTESIAN_POINT('',(3.,3.,-3.67394039744206E-16));
#284=CARTESIAN_POINT('',(3.,2.8125,-3.67394039744206E-16));
#285=CARTESIAN_POINT('',(1.2457226851109E-15,2.09805925913415E-15,-3.));
#286=CARTESIAN_POINT('Origin',(1.2457226851109E-15,6.99353086378051E-16,
0.));
#287=CARTESIAN_POINT('',(1.2457226851109E-15,2.09805925913415E-15,3.));
#288=CARTESIAN_POINT('Origin',(1.2457226851109E-15,1.3987061727561E-15,
0.));
#289=CARTESIAN_POINT('Origin',(1.2457226851109E-15,6.99353086378051E-16,
0.));
#290=CARTESIAN_POINT('Origin',(1.13644876536433E-15,1.03329573678058E-15,
0.));
#291=CARTESIAN_POINT('',(5.625,3.,0.));
#292=CARTESIAN_POINT('',(5.625,-3.,-3.67394039744206E-16));
#293=CARTESIAN_POINT('Origin',(5.625,3.09988721034174E-15,0.));
#294=CARTESIAN_POINT('Origin',(5.625,3.09988721034174E-15,0.));
#295=CARTESIAN_POINT('',(-5.625,-3.,-3.67394039744206E-16));
#296=CARTESIAN_POINT('',(2.53515493812044E-15,-3.,-3.67394039744206E-16));
#297=CARTESIAN_POINT('',(-5.625,3.,0.));
#298=CARTESIAN_POINT('Origin',(-5.625,-1.03329573678058E-15,0.));
#299=CARTESIAN_POINT('Origin',(-5.625,-1.03329573678058E-15,0.));
#300=CARTESIAN_POINT('Origin',(5.625,2.891,0.));
#301=CARTESIAN_POINT('',(5.625,2.891,0.));
#302=CARTESIAN_POINT('',(5.625,-2.89099999999999,-3.540453896335E-16));
#303=CARTESIAN_POINT('Origin',(5.625,3.09988721034174E-15,0.));
#304=CARTESIAN_POINT('Origin',(5.625,3.09988721034174E-15,0.));
#305=CARTESIAN_POINT('Origin',(1.04902962956708E-15,1.03329573678058E-15,
0.));
#306=CARTESIAN_POINT('',(-5.625,-2.891,-3.540453896335E-16));
#307=CARTESIAN_POINT('',(2.39691614471304E-15,-2.891,-3.540453896335E-16));
#308=CARTESIAN_POINT('',(-5.625,2.891,0.));
#309=CARTESIAN_POINT('Origin',(-5.625,-1.03329573678058E-15,0.));
#310=CARTESIAN_POINT('Origin',(-5.625,-1.03329573678058E-15,0.));
#311=CARTESIAN_POINT('Origin',(-5.625,3.,0.));
#312=UNCERTAINTY_MEASURE_WITH_UNIT(LENGTH_MEASURE(0.000393700787401575),
#317,'DISTANCE_ACCURACY_VALUE',
'Maximum model space distance between geometric entities at asserted c
onnectivities');
#313=UNCERTAINTY_MEASURE_WITH_UNIT(LENGTH_MEASURE(0.000393700787401575),
#317,'DISTANCE_ACCURACY_VALUE',
'Maximum model space distance between geometric entities at asserted c
onnectivities');
#314=(
GEOMETRIC_REPRESENTATION_CONTEXT(3)
GLOBAL_UNCERTAINTY_ASSIGNED_CONTEXT((#312))
GLOBAL_UNIT_ASSIGNED_CONTEXT((#317,#321,#322))
REPRESENTATION_CONTEXT('','3D')
);
#315=(
GEOMETRIC_REPRESENTATION_CONTEXT(3)
GLOBAL_UNCERTAINTY_ASSIGNED_CONTEXT((#313))
GLOBAL_UNIT_ASSIGNED_CONTEXT((#317,#321,#322))
REPRESENTATION_CONTEXT('','3D')
);
#316=DIMENSIONAL_EXPONENTS(1.,0.,0.,0.,0.,0.,0.);
#317=(
CONVERSION_BASED_UNIT('inch',#320)
LENGTH_UNIT()
NAMED_UNIT(#316)
);
#318=(
LENGTH_UNIT()
NAMED_UNIT(*)
SI_UNIT(.MILLI.,.METRE.)
);
#319=(
LENGTH_UNIT()
NAMED_UNIT(*)
SI_UNIT(.CENTI.,.METRE.)
);
#320=LENGTH_MEASURE_WITH_UNIT(LENGTH_MEASURE(25.4),#318);
#321=(
NAMED_UNIT(*)
PLANE_ANGLE_UNIT()
SI_UNIT($,.RADIAN.)
);
#322=(
NAMED_UNIT(*)
SI_UNIT($,.STERADIAN.)
SOLID_ANGLE_UNIT()
);
#323=SHAPE_DEFINITION_REPRESENTATION(#324,#325);
#324=PRODUCT_DEFINITION_SHAPE('',$,#327);
#325=SHAPE_REPRESENTATION('',(#182),#314);
#326=PRODUCT_DEFINITION_CONTEXT('part definition',#331,'design');
#327=PRODUCT_DEFINITION('7WWW-6','7WWW',#328,#326);
#328=PRODUCT_DEFINITION_FORMATION('',$,#333);
#329=PRODUCT_RELATED_PRODUCT_CATEGORY('7WWW','7WWW',(#333));
#330=APPLICATION_PROTOCOL_DEFINITION('international standard',
'automotive_design',2009,#331);
#331=APPLICATION_CONTEXT(
'Core Data for Automotive Mechanical Design Process');
#332=PRODUCT_CONTEXT('part definition',#331,'mechanical');
#333=PRODUCT('7WWW-6','7WWW',$,(#332));
#334=PRESENTATION_STYLE_ASSIGNMENT((#335));
#335=SURFACE_STYLE_USAGE(.BOTH.,#338);
#336=SURFACE_STYLE_RENDERING_WITH_PROPERTIES($,#342,(#337));
#337=SURFACE_STYLE_TRANSPARENT(0.);
#338=SURFACE_SIDE_STYLE('',(#339,#336));
#339=SURFACE_STYLE_FILL_AREA(#340);
#340=FILL_AREA_STYLE('',(#341));
#341=FILL_AREA_STYLE_COLOUR('',#342);
#342=COLOUR_RGB('',0.749019607843137,0.749019607843137,0.749019607843137);
ENDSEC;
END-ISO-10303-21;
