ISO-10303-21;
HEADER;
/* Generated by software containing ST-Developer
 * from STEP Tools, Inc. (www.steptools.com) 
 */

FILE_DESCRIPTION(
/* description */ (''),
/* implementation_level */ '2;1');

FILE_NAME(
/* name */ 
'W:\\AUTOCAD\\AutoCad - Projects\\Numbered\\9W\\STEP FILES\\9W-4.stp',
/* time_stamp */ '2022-04-18T14:39:22-04:00',
/* author */ ('stevend'),
/* organization */ (''),
/* preprocessor_version */ 'ST-DEVELOPER v18',
/* originating_system */ 'Autodesk Inventor 2020',
/* authorisation */ '');

FILE_SCHEMA (('AUTOMOTIVE_DESIGN { 1 0 10303 214 3 1 1 }'));
ENDSEC;

DATA;
#10=MECHANICAL_DESIGN_GEOMETRIC_PRESENTATION_REPRESENTATION('',(#13),#403);
#11=SHAPE_REPRESENTATION_RELATIONSHIP('SRR','None',#413,#12);
#12=ADVANCED_BREP_SHAPE_REPRESENTATION('',(#14),#402);
#13=STYLED_ITEM('',(#422),#14);
#14=MANIFOLD_SOLID_BREP('Solid1',#212);
#15=FACE_BOUND('',#42,.T.);
#16=FACE_BOUND('',#44,.T.);
#17=FACE_BOUND('',#48,.T.);
#18=FACE_BOUND('',#50,.T.);
#19=PLANE('',#257);
#20=PLANE('',#258);
#21=PLANE('',#263);
#22=PLANE('',#264);
#23=FACE_OUTER_BOUND('',#35,.T.);
#24=FACE_OUTER_BOUND('',#36,.T.);
#25=FACE_OUTER_BOUND('',#37,.T.);
#26=FACE_OUTER_BOUND('',#38,.T.);
#27=FACE_OUTER_BOUND('',#39,.T.);
#28=FACE_OUTER_BOUND('',#40,.T.);
#29=FACE_OUTER_BOUND('',#41,.T.);
#30=FACE_OUTER_BOUND('',#43,.T.);
#31=FACE_OUTER_BOUND('',#45,.T.);
#32=FACE_OUTER_BOUND('',#46,.T.);
#33=FACE_OUTER_BOUND('',#47,.T.);
#34=FACE_OUTER_BOUND('',#49,.T.);
#35=EDGE_LOOP('',(#134,#135,#136,#137,#138,#139));
#36=EDGE_LOOP('',(#140,#141,#142,#143,#144,#145));
#37=EDGE_LOOP('',(#146,#147,#148,#149,#150));
#38=EDGE_LOOP('',(#151,#152,#153,#154,#155,#156,#157));
#39=EDGE_LOOP('',(#158,#159,#160,#161,#162,#163,#164));
#40=EDGE_LOOP('',(#165,#166,#167,#168,#169,#170));
#41=EDGE_LOOP('',(#171));
#42=EDGE_LOOP('',(#172));
#43=EDGE_LOOP('',(#173));
#44=EDGE_LOOP('',(#174));
#45=EDGE_LOOP('',(#175,#176,#177,#178,#179,#180));
#46=EDGE_LOOP('',(#181,#182,#183,#184,#185,#186,#187));
#47=EDGE_LOOP('',(#188));
#48=EDGE_LOOP('',(#189));
#49=EDGE_LOOP('',(#190));
#50=EDGE_LOOP('',(#191));
#51=CIRCLE('',#236,1.917);
#52=CIRCLE('',#238,1.917);
#53=CIRCLE('',#243,1.917);
#54=CIRCLE('',#245,1.917);
#55=CIRCLE('',#249,2.);
#56=CIRCLE('',#253,2.);
#57=CIRCLE('',#260,2.);
#58=CIRCLE('',#262,2.);
#59=LINE('',#350,#67);
#60=LINE('',#356,#68);
#61=LINE('',#362,#69);
#62=LINE('',#367,#70);
#63=LINE('',#375,#71);
#64=LINE('',#384,#72);
#65=LINE('',#392,#73);
#66=LINE('',#397,#74);
#67=VECTOR('',#275,1.917);
#68=VECTOR('',#282,1.917);
#69=VECTOR('',#291,1.917);
#70=VECTOR('',#298,1.917);
#71=VECTOR('',#305,2.);
#72=VECTOR('',#316,2.);
#73=VECTOR('',#329,2.);
#74=VECTOR('',#336,2.);
#75=ELLIPSE('',#233,2.71104739906922,1.917);
#76=ELLIPSE('',#234,2.71104739906922,1.917);
#77=ELLIPSE('',#235,2.71104739906922,1.917);
#78=ELLIPSE('',#239,2.71104739906922,1.917);
#79=ELLIPSE('',#240,2.71104739906922,1.917);
#80=ELLIPSE('',#241,2.71104739906922,1.917);
#81=ELLIPSE('',#247,2.82842712474619,2.);
#82=ELLIPSE('',#248,2.82842712474619,2.);
#83=ELLIPSE('',#250,2.82842712474619,2.);
#84=ELLIPSE('',#251,2.82842712474619,2.);
#85=ELLIPSE('',#254,2.82842712474619,2.);
#86=ELLIPSE('',#255,2.82842712474619,2.);
#87=ELLIPSE('',#256,2.82842712474619,2.);
#88=VERTEX_POINT('',#343);
#89=VERTEX_POINT('',#344);
#90=VERTEX_POINT('',#346);
#91=VERTEX_POINT('',#349);
#92=VERTEX_POINT('',#353);
#93=VERTEX_POINT('',#355);
#94=VERTEX_POINT('',#361);
#95=VERTEX_POINT('',#365);
#96=VERTEX_POINT('',#369);
#97=VERTEX_POINT('',#370);
#98=VERTEX_POINT('',#372);
#99=VERTEX_POINT('',#374);
#100=VERTEX_POINT('',#377);
#101=VERTEX_POINT('',#381);
#102=VERTEX_POINT('',#383);
#103=VERTEX_POINT('',#391);
#104=VERTEX_POINT('',#395);
#105=EDGE_CURVE('',#88,#89,#75,.T.);
#106=EDGE_CURVE('',#90,#88,#76,.T.);
#107=EDGE_CURVE('',#89,#90,#77,.T.);
#108=EDGE_CURVE('',#89,#91,#59,.T.);
#109=EDGE_CURVE('',#91,#91,#51,.T.);
#110=EDGE_CURVE('',#92,#92,#52,.T.);
#111=EDGE_CURVE('',#92,#93,#60,.T.);
#112=EDGE_CURVE('',#90,#93,#78,.T.);
#113=EDGE_CURVE('',#88,#90,#79,.T.);
#114=EDGE_CURVE('',#93,#88,#80,.T.);
#115=EDGE_CURVE('',#88,#94,#61,.T.);
#116=EDGE_CURVE('',#94,#94,#53,.T.);
#117=EDGE_CURVE('',#95,#95,#54,.T.);
#118=EDGE_CURVE('',#95,#88,#62,.T.);
#119=EDGE_CURVE('',#96,#97,#81,.T.);
#120=EDGE_CURVE('',#98,#96,#82,.T.);
#121=EDGE_CURVE('',#98,#99,#63,.T.);
#122=EDGE_CURVE('',#99,#99,#55,.T.);
#123=EDGE_CURVE('',#100,#98,#83,.T.);
#124=EDGE_CURVE('',#97,#100,#84,.T.);
#125=EDGE_CURVE('',#101,#101,#56,.T.);
#126=EDGE_CURVE('',#101,#102,#64,.T.);
#127=EDGE_CURVE('',#96,#102,#85,.T.);
#128=EDGE_CURVE('',#100,#96,#86,.T.);
#129=EDGE_CURVE('',#102,#100,#87,.T.);
#130=EDGE_CURVE('',#97,#103,#65,.T.);
#131=EDGE_CURVE('',#103,#103,#57,.T.);
#132=EDGE_CURVE('',#104,#104,#58,.T.);
#133=EDGE_CURVE('',#104,#98,#66,.T.);
#134=ORIENTED_EDGE('',*,*,#105,.F.);
#135=ORIENTED_EDGE('',*,*,#106,.F.);
#136=ORIENTED_EDGE('',*,*,#107,.F.);
#137=ORIENTED_EDGE('',*,*,#108,.T.);
#138=ORIENTED_EDGE('',*,*,#109,.F.);
#139=ORIENTED_EDGE('',*,*,#108,.F.);
#140=ORIENTED_EDGE('',*,*,#110,.F.);
#141=ORIENTED_EDGE('',*,*,#111,.T.);
#142=ORIENTED_EDGE('',*,*,#112,.F.);
#143=ORIENTED_EDGE('',*,*,#113,.F.);
#144=ORIENTED_EDGE('',*,*,#114,.F.);
#145=ORIENTED_EDGE('',*,*,#111,.F.);
#146=ORIENTED_EDGE('',*,*,#113,.T.);
#147=ORIENTED_EDGE('',*,*,#106,.T.);
#148=ORIENTED_EDGE('',*,*,#115,.T.);
#149=ORIENTED_EDGE('',*,*,#116,.F.);
#150=ORIENTED_EDGE('',*,*,#115,.F.);
#151=ORIENTED_EDGE('',*,*,#117,.F.);
#152=ORIENTED_EDGE('',*,*,#118,.T.);
#153=ORIENTED_EDGE('',*,*,#105,.T.);
#154=ORIENTED_EDGE('',*,*,#107,.T.);
#155=ORIENTED_EDGE('',*,*,#112,.T.);
#156=ORIENTED_EDGE('',*,*,#114,.T.);
#157=ORIENTED_EDGE('',*,*,#118,.F.);
#158=ORIENTED_EDGE('',*,*,#119,.F.);
#159=ORIENTED_EDGE('',*,*,#120,.F.);
#160=ORIENTED_EDGE('',*,*,#121,.T.);
#161=ORIENTED_EDGE('',*,*,#122,.T.);
#162=ORIENTED_EDGE('',*,*,#121,.F.);
#163=ORIENTED_EDGE('',*,*,#123,.F.);
#164=ORIENTED_EDGE('',*,*,#124,.F.);
#165=ORIENTED_EDGE('',*,*,#125,.F.);
#166=ORIENTED_EDGE('',*,*,#126,.T.);
#167=ORIENTED_EDGE('',*,*,#127,.F.);
#168=ORIENTED_EDGE('',*,*,#128,.F.);
#169=ORIENTED_EDGE('',*,*,#129,.F.);
#170=ORIENTED_EDGE('',*,*,#126,.F.);
#171=ORIENTED_EDGE('',*,*,#122,.F.);
#172=ORIENTED_EDGE('',*,*,#110,.T.);
#173=ORIENTED_EDGE('',*,*,#125,.T.);
#174=ORIENTED_EDGE('',*,*,#109,.T.);
#175=ORIENTED_EDGE('',*,*,#128,.T.);
#176=ORIENTED_EDGE('',*,*,#119,.T.);
#177=ORIENTED_EDGE('',*,*,#130,.T.);
#178=ORIENTED_EDGE('',*,*,#131,.T.);
#179=ORIENTED_EDGE('',*,*,#130,.F.);
#180=ORIENTED_EDGE('',*,*,#124,.T.);
#181=ORIENTED_EDGE('',*,*,#132,.F.);
#182=ORIENTED_EDGE('',*,*,#133,.T.);
#183=ORIENTED_EDGE('',*,*,#120,.T.);
#184=ORIENTED_EDGE('',*,*,#127,.T.);
#185=ORIENTED_EDGE('',*,*,#129,.T.);
#186=ORIENTED_EDGE('',*,*,#123,.T.);
#187=ORIENTED_EDGE('',*,*,#133,.F.);
#188=ORIENTED_EDGE('',*,*,#131,.F.);
#189=ORIENTED_EDGE('',*,*,#117,.T.);
#190=ORIENTED_EDGE('',*,*,#132,.T.);
#191=ORIENTED_EDGE('',*,*,#116,.T.);
#192=CYLINDRICAL_SURFACE('',#232,1.917);
#193=CYLINDRICAL_SURFACE('',#237,1.917);
#194=CYLINDRICAL_SURFACE('',#242,1.917);
#195=CYLINDRICAL_SURFACE('',#244,1.917);
#196=CYLINDRICAL_SURFACE('',#246,2.);
#197=CYLINDRICAL_SURFACE('',#252,2.);
#198=CYLINDRICAL_SURFACE('',#259,2.);
#199=CYLINDRICAL_SURFACE('',#261,2.);
#200=ADVANCED_FACE('',(#23),#192,.F.);
#201=ADVANCED_FACE('',(#24),#193,.F.);
#202=ADVANCED_FACE('',(#25),#194,.F.);
#203=ADVANCED_FACE('',(#26),#195,.F.);
#204=ADVANCED_FACE('',(#27),#196,.T.);
#205=ADVANCED_FACE('',(#28),#197,.T.);
#206=ADVANCED_FACE('',(#29,#15),#19,.T.);
#207=ADVANCED_FACE('',(#30,#16),#20,.F.);
#208=ADVANCED_FACE('',(#31),#198,.T.);
#209=ADVANCED_FACE('',(#32),#199,.T.);
#210=ADVANCED_FACE('',(#33,#17),#21,.T.);
#211=ADVANCED_FACE('',(#34,#18),#22,.F.);
#212=CLOSED_SHELL('',(#200,#201,#202,#203,#204,#205,#206,#207,#208,#209,
#210,#211));
#213=DERIVED_UNIT_ELEMENT(#215,1.);
#214=DERIVED_UNIT_ELEMENT(#407,3.);
#215=(
MASS_UNIT()
NAMED_UNIT(*)
SI_UNIT($,.GRAM.)
);
#216=DERIVED_UNIT((#213,#214));
#217=MEASURE_REPRESENTATION_ITEM('density measure',
POSITIVE_RATIO_MEASURE(1.),#216);
#218=PROPERTY_DEFINITION_REPRESENTATION(#223,#220);
#219=PROPERTY_DEFINITION_REPRESENTATION(#224,#221);
#220=REPRESENTATION('material name',(#222),#402);
#221=REPRESENTATION('density',(#217),#402);
#222=DESCRIPTIVE_REPRESENTATION_ITEM('Generic','Generic');
#223=PROPERTY_DEFINITION('material property','material name',#415);
#224=PROPERTY_DEFINITION('material property','density of part',#415);
#225=DATE_TIME_ROLE('creation_date');
#226=APPLIED_DATE_AND_TIME_ASSIGNMENT(#227,#225,(#415));
#227=DATE_AND_TIME(#228,#229);
#228=CALENDAR_DATE(2012,7,9);
#229=LOCAL_TIME(14,23,23.,#230);
#230=COORDINATED_UNIVERSAL_TIME_OFFSET(0,0,.BEHIND.);
#231=AXIS2_PLACEMENT_3D('placement',#341,#265,#266);
#232=AXIS2_PLACEMENT_3D('',#342,#267,#268);
#233=AXIS2_PLACEMENT_3D('',#345,#269,#270);
#234=AXIS2_PLACEMENT_3D('',#347,#271,#272);
#235=AXIS2_PLACEMENT_3D('',#348,#273,#274);
#236=AXIS2_PLACEMENT_3D('',#351,#276,#277);
#237=AXIS2_PLACEMENT_3D('',#352,#278,#279);
#238=AXIS2_PLACEMENT_3D('',#354,#280,#281);
#239=AXIS2_PLACEMENT_3D('',#357,#283,#284);
#240=AXIS2_PLACEMENT_3D('',#358,#285,#286);
#241=AXIS2_PLACEMENT_3D('',#359,#287,#288);
#242=AXIS2_PLACEMENT_3D('',#360,#289,#290);
#243=AXIS2_PLACEMENT_3D('',#363,#292,#293);
#244=AXIS2_PLACEMENT_3D('',#364,#294,#295);
#245=AXIS2_PLACEMENT_3D('',#366,#296,#297);
#246=AXIS2_PLACEMENT_3D('',#368,#299,#300);
#247=AXIS2_PLACEMENT_3D('',#371,#301,#302);
#248=AXIS2_PLACEMENT_3D('',#373,#303,#304);
#249=AXIS2_PLACEMENT_3D('',#376,#306,#307);
#250=AXIS2_PLACEMENT_3D('',#378,#308,#309);
#251=AXIS2_PLACEMENT_3D('',#379,#310,#311);
#252=AXIS2_PLACEMENT_3D('',#380,#312,#313);
#253=AXIS2_PLACEMENT_3D('',#382,#314,#315);
#254=AXIS2_PLACEMENT_3D('',#385,#317,#318);
#255=AXIS2_PLACEMENT_3D('',#386,#319,#320);
#256=AXIS2_PLACEMENT_3D('',#387,#321,#322);
#257=AXIS2_PLACEMENT_3D('',#388,#323,#324);
#258=AXIS2_PLACEMENT_3D('',#389,#325,#326);
#259=AXIS2_PLACEMENT_3D('',#390,#327,#328);
#260=AXIS2_PLACEMENT_3D('',#393,#330,#331);
#261=AXIS2_PLACEMENT_3D('',#394,#332,#333);
#262=AXIS2_PLACEMENT_3D('',#396,#334,#335);
#263=AXIS2_PLACEMENT_3D('',#398,#337,#338);
#264=AXIS2_PLACEMENT_3D('',#399,#339,#340);
#265=DIRECTION('axis',(0.,0.,1.));
#266=DIRECTION('refdir',(1.,0.,0.));
#267=DIRECTION('center_axis',(0.,-1.,0.));
#268=DIRECTION('ref_axis',(-1.,0.,0.));
#269=DIRECTION('center_axis',(-0.707106781186548,-0.707106781186547,0.));
#270=DIRECTION('ref_axis',(-0.707106781186547,0.707106781186548,0.));
#271=DIRECTION('center_axis',(0.707106781186548,-0.707106781186547,0.));
#272=DIRECTION('ref_axis',(-0.707106781186547,-0.707106781186548,0.));
#273=DIRECTION('center_axis',(-0.707106781186548,-0.707106781186547,0.));
#274=DIRECTION('ref_axis',(-0.707106781186547,0.707106781186548,0.));
#275=DIRECTION('',(0.,-1.,0.));
#276=DIRECTION('center_axis',(0.,1.,0.));
#277=DIRECTION('ref_axis',(-1.,0.,0.));
#278=DIRECTION('center_axis',(0.,-1.,0.));
#279=DIRECTION('ref_axis',(-1.,0.,0.));
#280=DIRECTION('center_axis',(0.,-1.,0.));
#281=DIRECTION('ref_axis',(-1.,0.,0.));
#282=DIRECTION('',(0.,-1.,0.));
#283=DIRECTION('center_axis',(-0.707106781186548,0.707106781186547,0.));
#284=DIRECTION('ref_axis',(-0.707106781186547,-0.707106781186548,0.));
#285=DIRECTION('center_axis',(0.707106781186548,0.707106781186547,0.));
#286=DIRECTION('ref_axis',(-0.707106781186547,0.707106781186548,0.));
#287=DIRECTION('center_axis',(-0.707106781186548,0.707106781186547,0.));
#288=DIRECTION('ref_axis',(-0.707106781186547,-0.707106781186548,0.));
#289=DIRECTION('center_axis',(-1.,0.,0.));
#290=DIRECTION('ref_axis',(0.,0.,1.));
#291=DIRECTION('',(-1.,0.,0.));
#292=DIRECTION('center_axis',(1.,0.,0.));
#293=DIRECTION('ref_axis',(0.,0.,1.));
#294=DIRECTION('center_axis',(-1.,0.,0.));
#295=DIRECTION('ref_axis',(0.,0.,1.));
#296=DIRECTION('center_axis',(-1.,0.,0.));
#297=DIRECTION('ref_axis',(0.,0.,1.));
#298=DIRECTION('',(-1.,0.,0.));
#299=DIRECTION('center_axis',(0.,-1.,0.));
#300=DIRECTION('ref_axis',(1.,0.,0.));
#301=DIRECTION('center_axis',(0.707106781186548,-0.707106781186548,0.));
#302=DIRECTION('ref_axis',(0.707106781186547,0.707106781186547,0.));
#303=DIRECTION('center_axis',(-0.707106781186548,-0.707106781186548,0.));
#304=DIRECTION('ref_axis',(0.707106781186547,-0.707106781186547,0.));
#305=DIRECTION('',(0.,1.,0.));
#306=DIRECTION('center_axis',(0.,-1.,0.));
#307=DIRECTION('ref_axis',(1.,0.,0.));
#308=DIRECTION('center_axis',(-0.707106781186548,-0.707106781186548,0.));
#309=DIRECTION('ref_axis',(0.707106781186547,-0.707106781186547,0.));
#310=DIRECTION('center_axis',(0.707106781186548,-0.707106781186548,0.));
#311=DIRECTION('ref_axis',(0.707106781186547,0.707106781186547,0.));
#312=DIRECTION('center_axis',(0.,-1.,0.));
#313=DIRECTION('ref_axis',(1.,0.,0.));
#314=DIRECTION('center_axis',(0.,-1.,0.));
#315=DIRECTION('ref_axis',(1.,0.,0.));
#316=DIRECTION('',(0.,1.,0.));
#317=DIRECTION('center_axis',(-0.707106781186548,0.707106781186548,0.));
#318=DIRECTION('ref_axis',(0.707106781186547,0.707106781186547,0.));
#319=DIRECTION('center_axis',(0.707106781186548,0.707106781186548,0.));
#320=DIRECTION('ref_axis',(0.707106781186547,-0.707106781186547,0.));
#321=DIRECTION('center_axis',(-0.707106781186548,0.707106781186548,0.));
#322=DIRECTION('ref_axis',(0.707106781186547,0.707106781186547,0.));
#323=DIRECTION('center_axis',(0.,1.,0.));
#324=DIRECTION('ref_axis',(0.,0.,1.));
#325=DIRECTION('center_axis',(0.,1.,0.));
#326=DIRECTION('ref_axis',(0.,0.,1.));
#327=DIRECTION('center_axis',(-1.,0.,0.));
#328=DIRECTION('ref_axis',(0.,-1.,0.));
#329=DIRECTION('',(1.,0.,0.));
#330=DIRECTION('center_axis',(-1.,0.,0.));
#331=DIRECTION('ref_axis',(0.,-1.,0.));
#332=DIRECTION('center_axis',(-1.,0.,0.));
#333=DIRECTION('ref_axis',(0.,-1.,0.));
#334=DIRECTION('center_axis',(-1.,0.,0.));
#335=DIRECTION('ref_axis',(0.,-1.,0.));
#336=DIRECTION('',(1.,0.,0.));
#337=DIRECTION('center_axis',(1.,0.,0.));
#338=DIRECTION('ref_axis',(0.,0.,-1.));
#339=DIRECTION('center_axis',(1.,0.,0.));
#340=DIRECTION('ref_axis',(0.,0.,-1.));
#341=CARTESIAN_POINT('',(0.,0.,0.));
#342=CARTESIAN_POINT('Origin',(6.24370457402868E-17,3.875,0.));
#343=CARTESIAN_POINT('',(6.24370457402868E-17,0.,-1.917));
#344=CARTESIAN_POINT('',(1.917,-1.917,2.34764791396548E-16));
#345=CARTESIAN_POINT('Origin',(6.24370457402868E-17,0.,0.));
#346=CARTESIAN_POINT('',(6.24370457402868E-17,0.,1.917));
#347=CARTESIAN_POINT('Origin',(6.24370457402868E-17,0.,0.));
#348=CARTESIAN_POINT('Origin',(6.24370457402868E-17,0.,0.));
#349=CARTESIAN_POINT('',(1.917,-3.875,-2.34764791396548E-16));
#350=CARTESIAN_POINT('',(1.917,3.875,2.34764791396548E-16));
#351=CARTESIAN_POINT('Origin',(6.24370457402868E-17,-3.875,0.));
#352=CARTESIAN_POINT('Origin',(6.24370457402868E-17,3.875,0.));
#353=CARTESIAN_POINT('',(1.917,3.875,-2.34764791396548E-16));
#354=CARTESIAN_POINT('Origin',(6.24370457402868E-17,3.875,0.));
#355=CARTESIAN_POINT('',(1.917,1.917,2.34764791396548E-16));
#356=CARTESIAN_POINT('',(1.917,3.875,2.34764791396548E-16));
#357=CARTESIAN_POINT('Origin',(6.24370457402868E-17,0.,0.));
#358=CARTESIAN_POINT('Origin',(6.24370457402868E-17,0.,0.));
#359=CARTESIAN_POINT('Origin',(6.24370457402868E-17,0.,0.));
#360=CARTESIAN_POINT('Origin',(3.875,0.,0.));
#361=CARTESIAN_POINT('',(-3.875,2.34764791396548E-16,-1.917));
#362=CARTESIAN_POINT('',(3.875,-2.34764791396548E-16,-1.917));
#363=CARTESIAN_POINT('Origin',(-3.875,0.,0.));
#364=CARTESIAN_POINT('Origin',(3.875,0.,0.));
#365=CARTESIAN_POINT('',(3.875,2.34764791396548E-16,-1.917));
#366=CARTESIAN_POINT('Origin',(3.875,0.,0.));
#367=CARTESIAN_POINT('',(3.875,-2.34764791396548E-16,-1.917));
#368=CARTESIAN_POINT('Origin',(6.24370457402868E-17,3.875,0.));
#369=CARTESIAN_POINT('',(6.24370457402868E-17,0.,-2.));
#370=CARTESIAN_POINT('',(2.,2.,-2.44929359829471E-16));
#371=CARTESIAN_POINT('Origin',(6.24370457402868E-17,0.,0.));
#372=CARTESIAN_POINT('',(-2.,2.,-2.44929359829471E-16));
#373=CARTESIAN_POINT('Origin',(6.24370457402868E-17,0.,0.));
#374=CARTESIAN_POINT('',(-2.,3.875,2.44929359829471E-16));
#375=CARTESIAN_POINT('',(-2.,3.875,-2.44929359829471E-16));
#376=CARTESIAN_POINT('Origin',(6.24370457402868E-17,3.875,0.));
#377=CARTESIAN_POINT('',(6.24370457402868E-17,0.,2.));
#378=CARTESIAN_POINT('Origin',(6.24370457402868E-17,0.,0.));
#379=CARTESIAN_POINT('Origin',(6.24370457402868E-17,0.,0.));
#380=CARTESIAN_POINT('Origin',(6.24370457402868E-17,3.875,0.));
#381=CARTESIAN_POINT('',(-2.,-3.875,-2.44929359829471E-16));
#382=CARTESIAN_POINT('Origin',(6.24370457402868E-17,-3.875,0.));
#383=CARTESIAN_POINT('',(-2.,-2.,-2.44929359829471E-16));
#384=CARTESIAN_POINT('',(-2.,3.875,-2.44929359829471E-16));
#385=CARTESIAN_POINT('Origin',(6.24370457402868E-17,0.,0.));
#386=CARTESIAN_POINT('Origin',(6.24370457402868E-17,0.,0.));
#387=CARTESIAN_POINT('Origin',(6.24370457402868E-17,0.,0.));
#388=CARTESIAN_POINT('Origin',(1.22595574535424E-16,3.875,-4.58893101297934E-17));
#389=CARTESIAN_POINT('Origin',(0.,-3.875,0.));
#390=CARTESIAN_POINT('Origin',(3.875,0.,0.));
#391=CARTESIAN_POINT('',(3.875,2.,2.44929359829471E-16));
#392=CARTESIAN_POINT('',(3.875,2.,-2.44929359829471E-16));
#393=CARTESIAN_POINT('Origin',(3.875,0.,0.));
#394=CARTESIAN_POINT('Origin',(3.875,0.,0.));
#395=CARTESIAN_POINT('',(-3.875,2.,-2.44929359829471E-16));
#396=CARTESIAN_POINT('Origin',(-3.875,0.,0.));
#397=CARTESIAN_POINT('',(3.875,2.,-2.44929359829471E-16));
#398=CARTESIAN_POINT('Origin',(3.875,-1.12189400245376E-16,-4.58893101297934E-17));
#399=CARTESIAN_POINT('Origin',(-3.875,0.,0.));
#400=UNCERTAINTY_MEASURE_WITH_UNIT(LENGTH_MEASURE(0.000393700787401575),
#405,'DISTANCE_ACCURACY_VALUE',
'Maximum model space distance between geometric entities at asserted c
onnectivities');
#401=UNCERTAINTY_MEASURE_WITH_UNIT(LENGTH_MEASURE(0.000393700787401575),
#405,'DISTANCE_ACCURACY_VALUE',
'Maximum model space distance between geometric entities at asserted c
onnectivities');
#402=(
GEOMETRIC_REPRESENTATION_CONTEXT(3)
GLOBAL_UNCERTAINTY_ASSIGNED_CONTEXT((#400))
GLOBAL_UNIT_ASSIGNED_CONTEXT((#405,#409,#410))
REPRESENTATION_CONTEXT('','3D')
);
#403=(
GEOMETRIC_REPRESENTATION_CONTEXT(3)
GLOBAL_UNCERTAINTY_ASSIGNED_CONTEXT((#401))
GLOBAL_UNIT_ASSIGNED_CONTEXT((#405,#409,#410))
REPRESENTATION_CONTEXT('','3D')
);
#404=DIMENSIONAL_EXPONENTS(1.,0.,0.,0.,0.,0.,0.);
#405=(
CONVERSION_BASED_UNIT('inch',#408)
LENGTH_UNIT()
NAMED_UNIT(#404)
);
#406=(
LENGTH_UNIT()
NAMED_UNIT(*)
SI_UNIT(.MILLI.,.METRE.)
);
#407=(
LENGTH_UNIT()
NAMED_UNIT(*)
SI_UNIT(.CENTI.,.METRE.)
);
#408=LENGTH_MEASURE_WITH_UNIT(LENGTH_MEASURE(25.4),#406);
#409=(
NAMED_UNIT(*)
PLANE_ANGLE_UNIT()
SI_UNIT($,.RADIAN.)
);
#410=(
NAMED_UNIT(*)
SI_UNIT($,.STERADIAN.)
SOLID_ANGLE_UNIT()
);
#411=SHAPE_DEFINITION_REPRESENTATION(#412,#413);
#412=PRODUCT_DEFINITION_SHAPE('',$,#415);
#413=SHAPE_REPRESENTATION('',(#231),#402);
#414=PRODUCT_DEFINITION_CONTEXT('part definition',#419,'design');
#415=PRODUCT_DEFINITION('9W-4','9W-4',#416,#414);
#416=PRODUCT_DEFINITION_FORMATION('',$,#421);
#417=PRODUCT_RELATED_PRODUCT_CATEGORY('9W-4','9W-4',(#421));
#418=APPLICATION_PROTOCOL_DEFINITION('international standard',
'automotive_design',2009,#419);
#419=APPLICATION_CONTEXT(
'Core Data for Automotive Mechanical Design Process');
#420=PRODUCT_CONTEXT('part definition',#419,'mechanical');
#421=PRODUCT('9W-4','9W-4',$,(#420));
#422=PRESENTATION_STYLE_ASSIGNMENT((#423));
#423=SURFACE_STYLE_USAGE(.BOTH.,#426);
#424=SURFACE_STYLE_RENDERING_WITH_PROPERTIES($,#430,(#425));
#425=SURFACE_STYLE_TRANSPARENT(0.);
#426=SURFACE_SIDE_STYLE('',(#427,#424));
#427=SURFACE_STYLE_FILL_AREA(#428);
#428=FILL_AREA_STYLE('',(#429));
#429=FILL_AREA_STYLE_COLOUR('',#430);
#430=COLOUR_RGB('',0.749019607843137,0.749019607843137,0.749019607843137);
ENDSEC;
END-ISO-10303-21;
