ISO-10303-21;
HEADER;
/* Generated by software containing ST-Developer
 * from STEP Tools, Inc. (www.steptools.com) 
 */

FILE_DESCRIPTION(
/* description */ (''),
/* implementation_level */ '2;1');

FILE_NAME(
/* name */ 
'W:\\AUTOCAD\\AutoCad - Projects\\L\\L14A7\\STP FILES\\L14A7-2.5.stp',
/* time_stamp */ '2021-05-21T11:05:21-04:00',
/* author */ ('ken'),
/* organization */ (''),
/* preprocessor_version */ 'ST-DEVELOPER v18',
/* originating_system */ 'Autodesk Inventor 2020',
/* authorisation */ '');

FILE_SCHEMA (('AUTOMOTIVE_DESIGN { 1 0 10303 214 3 1 1 }'));
ENDSEC;

DATA;
#10=MECHANICAL_DESIGN_GEOMETRIC_PRESENTATION_REPRESENTATION('',(#13),#474);
#11=SHAPE_REPRESENTATION_RELATIONSHIP('SRR','None',#484,#12);
#12=ADVANCED_BREP_SHAPE_REPRESENTATION('',(#14),#473);
#13=STYLED_ITEM('',(#493),#14);
#14=MANIFOLD_SOLID_BREP('Solid1',#243);
#15=CONICAL_SURFACE('',#292,1.36225,0.785398163397449);
#16=FACE_BOUND('',#53,.T.);
#17=FACE_BOUND('',#56,.T.);
#18=FACE_BOUND('',#62,.T.);
#19=FACE_BOUND('',#65,.T.);
#20=PLANE('',#274);
#21=PLANE('',#284);
#22=PLANE('',#300);
#23=PLANE('',#304);
#24=LINE('',#415,#29);
#25=LINE('',#441,#30);
#26=LINE('',#453,#31);
#27=LINE('',#462,#32);
#28=LINE('',#469,#33);
#29=VECTOR('',#327,1.25);
#30=VECTOR('',#358,1.185);
#31=VECTOR('',#373,1.36225);
#32=VECTOR('',#384,1.456);
#33=VECTOR('',#393,1.355);
#34=CYLINDRICAL_SURFACE('',#270,1.25);
#35=CYLINDRICAL_SURFACE('',#287,1.185);
#36=CYLINDRICAL_SURFACE('',#297,1.456);
#37=CYLINDRICAL_SURFACE('',#303,1.355);
#38=FACE_OUTER_BOUND('',#50,.T.);
#39=FACE_OUTER_BOUND('',#51,.T.);
#40=FACE_OUTER_BOUND('',#52,.T.);
#41=FACE_OUTER_BOUND('',#54,.T.);
#42=FACE_OUTER_BOUND('',#55,.T.);
#43=FACE_OUTER_BOUND('',#57,.T.);
#44=FACE_OUTER_BOUND('',#58,.T.);
#45=FACE_OUTER_BOUND('',#59,.T.);
#46=FACE_OUTER_BOUND('',#60,.T.);
#47=FACE_OUTER_BOUND('',#61,.T.);
#48=FACE_OUTER_BOUND('',#63,.T.);
#49=FACE_OUTER_BOUND('',#64,.T.);
#50=EDGE_LOOP('',(#158,#159,#160,#161,#162,#163,#164));
#51=EDGE_LOOP('',(#165,#166,#167,#168,#169,#170,#171,#172));
#52=EDGE_LOOP('',(#173,#174));
#53=EDGE_LOOP('',(#175,#176));
#54=EDGE_LOOP('',(#177,#178,#179,#180,#181,#182,#183));
#55=EDGE_LOOP('',(#184,#185));
#56=EDGE_LOOP('',(#186,#187));
#57=EDGE_LOOP('',(#188,#189,#190,#191,#192,#193,#194));
#58=EDGE_LOOP('',(#195,#196,#197,#198,#199,#200,#201));
#59=EDGE_LOOP('',(#202,#203,#204,#205,#206,#207));
#60=EDGE_LOOP('',(#208,#209,#210,#211,#212,#213));
#61=EDGE_LOOP('',(#214,#215));
#62=EDGE_LOOP('',(#216,#217));
#63=EDGE_LOOP('',(#218,#219,#220,#221,#222,#223));
#64=EDGE_LOOP('',(#224,#225));
#65=EDGE_LOOP('',(#226,#227));
#66=CIRCLE('',#264,1.295);
#67=CIRCLE('',#265,0.045);
#68=CIRCLE('',#266,1.25);
#69=CIRCLE('',#267,1.25);
#70=CIRCLE('',#268,1.25);
#71=CIRCLE('',#269,1.295);
#72=CIRCLE('',#271,1.25);
#73=CIRCLE('',#272,1.25);
#74=CIRCLE('',#273,1.25);
#75=CIRCLE('',#275,1.355);
#76=CIRCLE('',#276,1.355);
#77=CIRCLE('',#278,1.185);
#78=CIRCLE('',#279,1.185);
#79=CIRCLE('',#280,0.005);
#80=CIRCLE('',#281,1.19);
#81=CIRCLE('',#282,1.19);
#82=CIRCLE('',#283,1.185);
#83=CIRCLE('',#285,1.245);
#84=CIRCLE('',#286,1.245);
#85=CIRCLE('',#288,1.185);
#86=CIRCLE('',#289,1.185);
#87=CIRCLE('',#291,0.005);
#88=CIRCLE('',#293,1.456);
#89=CIRCLE('',#294,1.456);
#90=CIRCLE('',#295,1.2685);
#91=CIRCLE('',#296,1.2685);
#92=CIRCLE('',#298,1.456);
#93=CIRCLE('',#299,1.456);
#94=CIRCLE('',#301,1.355);
#95=CIRCLE('',#302,1.355);
#96=VERTEX_POINT('',#398);
#97=VERTEX_POINT('',#399);
#98=VERTEX_POINT('',#401);
#99=VERTEX_POINT('',#403);
#100=VERTEX_POINT('',#405);
#101=VERTEX_POINT('',#410);
#102=VERTEX_POINT('',#411);
#103=VERTEX_POINT('',#413);
#104=VERTEX_POINT('',#418);
#105=VERTEX_POINT('',#419);
#106=VERTEX_POINT('',#423);
#107=VERTEX_POINT('',#424);
#108=VERTEX_POINT('',#426);
#109=VERTEX_POINT('',#428);
#110=VERTEX_POINT('',#430);
#111=VERTEX_POINT('',#435);
#112=VERTEX_POINT('',#436);
#113=VERTEX_POINT('',#440);
#114=VERTEX_POINT('',#442);
#115=VERTEX_POINT('',#448);
#116=VERTEX_POINT('',#449);
#117=VERTEX_POINT('',#452);
#118=VERTEX_POINT('',#454);
#119=VERTEX_POINT('',#458);
#120=VERTEX_POINT('',#459);
#121=VERTEX_POINT('',#464);
#122=VERTEX_POINT('',#465);
#123=EDGE_CURVE('',#96,#97,#66,.T.);
#124=EDGE_CURVE('',#97,#98,#67,.T.);
#125=EDGE_CURVE('',#98,#99,#68,.T.);
#126=EDGE_CURVE('',#99,#100,#69,.T.);
#127=EDGE_CURVE('',#100,#98,#70,.T.);
#128=EDGE_CURVE('',#97,#96,#71,.T.);
#129=EDGE_CURVE('',#101,#102,#72,.T.);
#130=EDGE_CURVE('',#103,#101,#73,.T.);
#131=EDGE_CURVE('',#103,#100,#24,.T.);
#132=EDGE_CURVE('',#102,#103,#74,.T.);
#133=EDGE_CURVE('',#104,#105,#75,.T.);
#134=EDGE_CURVE('',#105,#104,#76,.T.);
#135=EDGE_CURVE('',#106,#107,#77,.T.);
#136=EDGE_CURVE('',#107,#108,#78,.T.);
#137=EDGE_CURVE('',#108,#109,#79,.T.);
#138=EDGE_CURVE('',#109,#110,#80,.T.);
#139=EDGE_CURVE('',#110,#109,#81,.T.);
#140=EDGE_CURVE('',#108,#106,#82,.T.);
#141=EDGE_CURVE('',#111,#112,#83,.T.);
#142=EDGE_CURVE('',#112,#111,#84,.T.);
#143=EDGE_CURVE('',#107,#113,#25,.T.);
#144=EDGE_CURVE('',#114,#113,#85,.T.);
#145=EDGE_CURVE('',#113,#114,#86,.T.);
#146=EDGE_CURVE('',#112,#102,#87,.T.);
#147=EDGE_CURVE('',#115,#116,#88,.T.);
#148=EDGE_CURVE('',#116,#115,#89,.T.);
#149=EDGE_CURVE('',#116,#117,#26,.T.);
#150=EDGE_CURVE('',#117,#118,#90,.T.);
#151=EDGE_CURVE('',#118,#117,#91,.T.);
#152=EDGE_CURVE('',#119,#120,#92,.T.);
#153=EDGE_CURVE('',#120,#119,#93,.T.);
#154=EDGE_CURVE('',#120,#116,#27,.T.);
#155=EDGE_CURVE('',#121,#122,#94,.T.);
#156=EDGE_CURVE('',#122,#121,#95,.T.);
#157=EDGE_CURVE('',#105,#122,#28,.T.);
#158=ORIENTED_EDGE('',*,*,#123,.T.);
#159=ORIENTED_EDGE('',*,*,#124,.T.);
#160=ORIENTED_EDGE('',*,*,#125,.T.);
#161=ORIENTED_EDGE('',*,*,#126,.T.);
#162=ORIENTED_EDGE('',*,*,#127,.T.);
#163=ORIENTED_EDGE('',*,*,#124,.F.);
#164=ORIENTED_EDGE('',*,*,#128,.T.);
#165=ORIENTED_EDGE('',*,*,#129,.F.);
#166=ORIENTED_EDGE('',*,*,#130,.F.);
#167=ORIENTED_EDGE('',*,*,#131,.T.);
#168=ORIENTED_EDGE('',*,*,#126,.F.);
#169=ORIENTED_EDGE('',*,*,#125,.F.);
#170=ORIENTED_EDGE('',*,*,#127,.F.);
#171=ORIENTED_EDGE('',*,*,#131,.F.);
#172=ORIENTED_EDGE('',*,*,#132,.F.);
#173=ORIENTED_EDGE('',*,*,#133,.T.);
#174=ORIENTED_EDGE('',*,*,#134,.T.);
#175=ORIENTED_EDGE('',*,*,#123,.F.);
#176=ORIENTED_EDGE('',*,*,#128,.F.);
#177=ORIENTED_EDGE('',*,*,#135,.T.);
#178=ORIENTED_EDGE('',*,*,#136,.T.);
#179=ORIENTED_EDGE('',*,*,#137,.T.);
#180=ORIENTED_EDGE('',*,*,#138,.T.);
#181=ORIENTED_EDGE('',*,*,#139,.T.);
#182=ORIENTED_EDGE('',*,*,#137,.F.);
#183=ORIENTED_EDGE('',*,*,#140,.T.);
#184=ORIENTED_EDGE('',*,*,#141,.F.);
#185=ORIENTED_EDGE('',*,*,#142,.F.);
#186=ORIENTED_EDGE('',*,*,#139,.F.);
#187=ORIENTED_EDGE('',*,*,#138,.F.);
#188=ORIENTED_EDGE('',*,*,#135,.F.);
#189=ORIENTED_EDGE('',*,*,#140,.F.);
#190=ORIENTED_EDGE('',*,*,#136,.F.);
#191=ORIENTED_EDGE('',*,*,#143,.T.);
#192=ORIENTED_EDGE('',*,*,#144,.F.);
#193=ORIENTED_EDGE('',*,*,#145,.F.);
#194=ORIENTED_EDGE('',*,*,#143,.F.);
#195=ORIENTED_EDGE('',*,*,#141,.T.);
#196=ORIENTED_EDGE('',*,*,#146,.T.);
#197=ORIENTED_EDGE('',*,*,#132,.T.);
#198=ORIENTED_EDGE('',*,*,#130,.T.);
#199=ORIENTED_EDGE('',*,*,#129,.T.);
#200=ORIENTED_EDGE('',*,*,#146,.F.);
#201=ORIENTED_EDGE('',*,*,#142,.T.);
#202=ORIENTED_EDGE('',*,*,#147,.F.);
#203=ORIENTED_EDGE('',*,*,#148,.F.);
#204=ORIENTED_EDGE('',*,*,#149,.T.);
#205=ORIENTED_EDGE('',*,*,#150,.T.);
#206=ORIENTED_EDGE('',*,*,#151,.T.);
#207=ORIENTED_EDGE('',*,*,#149,.F.);
#208=ORIENTED_EDGE('',*,*,#152,.F.);
#209=ORIENTED_EDGE('',*,*,#153,.F.);
#210=ORIENTED_EDGE('',*,*,#154,.T.);
#211=ORIENTED_EDGE('',*,*,#148,.T.);
#212=ORIENTED_EDGE('',*,*,#147,.T.);
#213=ORIENTED_EDGE('',*,*,#154,.F.);
#214=ORIENTED_EDGE('',*,*,#152,.T.);
#215=ORIENTED_EDGE('',*,*,#153,.T.);
#216=ORIENTED_EDGE('',*,*,#155,.F.);
#217=ORIENTED_EDGE('',*,*,#156,.F.);
#218=ORIENTED_EDGE('',*,*,#133,.F.);
#219=ORIENTED_EDGE('',*,*,#134,.F.);
#220=ORIENTED_EDGE('',*,*,#157,.T.);
#221=ORIENTED_EDGE('',*,*,#156,.T.);
#222=ORIENTED_EDGE('',*,*,#155,.T.);
#223=ORIENTED_EDGE('',*,*,#157,.F.);
#224=ORIENTED_EDGE('',*,*,#151,.F.);
#225=ORIENTED_EDGE('',*,*,#150,.F.);
#226=ORIENTED_EDGE('',*,*,#144,.T.);
#227=ORIENTED_EDGE('',*,*,#145,.T.);
#228=TOROIDAL_SURFACE('',#263,1.295,0.045);
#229=TOROIDAL_SURFACE('',#277,1.19,0.005);
#230=TOROIDAL_SURFACE('',#290,1.245,0.005);
#231=ADVANCED_FACE('',(#38),#228,.F.);
#232=ADVANCED_FACE('',(#39),#34,.T.);
#233=ADVANCED_FACE('',(#40,#16),#20,.T.);
#234=ADVANCED_FACE('',(#41),#229,.T.);
#235=ADVANCED_FACE('',(#42,#17),#21,.T.);
#236=ADVANCED_FACE('',(#43),#35,.F.);
#237=ADVANCED_FACE('',(#44),#230,.T.);
#238=ADVANCED_FACE('',(#45),#15,.T.);
#239=ADVANCED_FACE('',(#46),#36,.T.);
#240=ADVANCED_FACE('',(#47,#18),#22,.T.);
#241=ADVANCED_FACE('',(#48),#37,.T.);
#242=ADVANCED_FACE('',(#49,#19),#23,.T.);
#243=CLOSED_SHELL('',(#231,#232,#233,#234,#235,#236,#237,#238,#239,#240,
#241,#242));
#244=DERIVED_UNIT_ELEMENT(#246,1.);
#245=DERIVED_UNIT_ELEMENT(#478,3.);
#246=(
MASS_UNIT()
NAMED_UNIT(*)
SI_UNIT($,.GRAM.)
);
#247=DERIVED_UNIT((#244,#245));
#248=MEASURE_REPRESENTATION_ITEM('density measure',
POSITIVE_RATIO_MEASURE(1.),#247);
#249=PROPERTY_DEFINITION_REPRESENTATION(#254,#251);
#250=PROPERTY_DEFINITION_REPRESENTATION(#255,#252);
#251=REPRESENTATION('material name',(#253),#473);
#252=REPRESENTATION('density',(#248),#473);
#253=DESCRIPTIVE_REPRESENTATION_ITEM('Generic','Generic');
#254=PROPERTY_DEFINITION('material property','material name',#486);
#255=PROPERTY_DEFINITION('material property','density of part',#486);
#256=DATE_TIME_ROLE('creation_date');
#257=APPLIED_DATE_AND_TIME_ASSIGNMENT(#258,#256,(#486));
#258=DATE_AND_TIME(#259,#260);
#259=CALENDAR_DATE(2007,9,8);
#260=LOCAL_TIME(13,7,50.,#261);
#261=COORDINATED_UNIVERSAL_TIME_OFFSET(0,0,.BEHIND.);
#262=AXIS2_PLACEMENT_3D('placement',#396,#305,#306);
#263=AXIS2_PLACEMENT_3D('',#397,#307,#308);
#264=AXIS2_PLACEMENT_3D('',#400,#309,#310);
#265=AXIS2_PLACEMENT_3D('',#402,#311,#312);
#266=AXIS2_PLACEMENT_3D('',#404,#313,#314);
#267=AXIS2_PLACEMENT_3D('',#406,#315,#316);
#268=AXIS2_PLACEMENT_3D('',#407,#317,#318);
#269=AXIS2_PLACEMENT_3D('',#408,#319,#320);
#270=AXIS2_PLACEMENT_3D('',#409,#321,#322);
#271=AXIS2_PLACEMENT_3D('',#412,#323,#324);
#272=AXIS2_PLACEMENT_3D('',#414,#325,#326);
#273=AXIS2_PLACEMENT_3D('',#416,#328,#329);
#274=AXIS2_PLACEMENT_3D('',#417,#330,#331);
#275=AXIS2_PLACEMENT_3D('',#420,#332,#333);
#276=AXIS2_PLACEMENT_3D('',#421,#334,#335);
#277=AXIS2_PLACEMENT_3D('',#422,#336,#337);
#278=AXIS2_PLACEMENT_3D('',#425,#338,#339);
#279=AXIS2_PLACEMENT_3D('',#427,#340,#341);
#280=AXIS2_PLACEMENT_3D('',#429,#342,#343);
#281=AXIS2_PLACEMENT_3D('',#431,#344,#345);
#282=AXIS2_PLACEMENT_3D('',#432,#346,#347);
#283=AXIS2_PLACEMENT_3D('',#433,#348,#349);
#284=AXIS2_PLACEMENT_3D('',#434,#350,#351);
#285=AXIS2_PLACEMENT_3D('',#437,#352,#353);
#286=AXIS2_PLACEMENT_3D('',#438,#354,#355);
#287=AXIS2_PLACEMENT_3D('',#439,#356,#357);
#288=AXIS2_PLACEMENT_3D('',#443,#359,#360);
#289=AXIS2_PLACEMENT_3D('',#444,#361,#362);
#290=AXIS2_PLACEMENT_3D('',#445,#363,#364);
#291=AXIS2_PLACEMENT_3D('',#446,#365,#366);
#292=AXIS2_PLACEMENT_3D('',#447,#367,#368);
#293=AXIS2_PLACEMENT_3D('',#450,#369,#370);
#294=AXIS2_PLACEMENT_3D('',#451,#371,#372);
#295=AXIS2_PLACEMENT_3D('',#455,#374,#375);
#296=AXIS2_PLACEMENT_3D('',#456,#376,#377);
#297=AXIS2_PLACEMENT_3D('',#457,#378,#379);
#298=AXIS2_PLACEMENT_3D('',#460,#380,#381);
#299=AXIS2_PLACEMENT_3D('',#461,#382,#383);
#300=AXIS2_PLACEMENT_3D('',#463,#385,#386);
#301=AXIS2_PLACEMENT_3D('',#466,#387,#388);
#302=AXIS2_PLACEMENT_3D('',#467,#389,#390);
#303=AXIS2_PLACEMENT_3D('',#468,#391,#392);
#304=AXIS2_PLACEMENT_3D('',#470,#394,#395);
#305=DIRECTION('axis',(0.,0.,1.));
#306=DIRECTION('refdir',(1.,0.,0.));
#307=DIRECTION('center_axis',(1.,0.,0.));
#308=DIRECTION('ref_axis',(0.,0.,-1.));
#309=DIRECTION('center_axis',(1.,0.,0.));
#310=DIRECTION('ref_axis',(0.,-1.,1.22464679914735E-16));
#311=DIRECTION('center_axis',(0.,-1.,-1.22464679914735E-16));
#312=DIRECTION('ref_axis',(0.,-1.22464679914735E-16,1.));
#313=DIRECTION('center_axis',(-1.,0.,0.));
#314=DIRECTION('ref_axis',(0.,-1.,1.22464679914735E-16));
#315=DIRECTION('center_axis',(-1.,0.,0.));
#316=DIRECTION('ref_axis',(0.,-1.,1.22464679914735E-16));
#317=DIRECTION('center_axis',(-1.,0.,0.));
#318=DIRECTION('ref_axis',(0.,-1.,1.22464679914735E-16));
#319=DIRECTION('center_axis',(1.,0.,0.));
#320=DIRECTION('ref_axis',(0.,-1.,1.22464679914735E-16));
#321=DIRECTION('center_axis',(1.,0.,0.));
#322=DIRECTION('ref_axis',(0.,1.,0.));
#323=DIRECTION('center_axis',(1.,0.,0.));
#324=DIRECTION('ref_axis',(0.,-1.,1.22460635382238E-16));
#325=DIRECTION('center_axis',(1.,0.,0.));
#326=DIRECTION('ref_axis',(0.,-1.,1.22460635382238E-16));
#327=DIRECTION('',(-1.,0.,0.));
#328=DIRECTION('center_axis',(1.,0.,0.));
#329=DIRECTION('ref_axis',(0.,-1.,1.22460635382238E-16));
#330=DIRECTION('center_axis',(1.,0.,0.));
#331=DIRECTION('ref_axis',(0.,0.,-1.));
#332=DIRECTION('center_axis',(1.,0.,0.));
#333=DIRECTION('ref_axis',(0.,1.,0.));
#334=DIRECTION('center_axis',(1.,0.,0.));
#335=DIRECTION('ref_axis',(0.,1.,0.));
#336=DIRECTION('center_axis',(1.,0.,0.));
#337=DIRECTION('ref_axis',(0.,0.,-1.));
#338=DIRECTION('center_axis',(-1.,0.,0.));
#339=DIRECTION('ref_axis',(0.,-1.,1.22460635382238E-16));
#340=DIRECTION('center_axis',(-1.,0.,0.));
#341=DIRECTION('ref_axis',(0.,-1.,1.22460635382238E-16));
#342=DIRECTION('center_axis',(0.,-1.,-1.22464679914735E-16));
#343=DIRECTION('ref_axis',(0.,-1.22464679914735E-16,1.));
#344=DIRECTION('center_axis',(1.,0.,0.));
#345=DIRECTION('ref_axis',(0.,-1.,1.22460635382238E-16));
#346=DIRECTION('center_axis',(1.,0.,0.));
#347=DIRECTION('ref_axis',(0.,-1.,1.22460635382238E-16));
#348=DIRECTION('center_axis',(-1.,0.,0.));
#349=DIRECTION('ref_axis',(0.,-1.,1.22460635382238E-16));
#350=DIRECTION('center_axis',(1.,0.,0.));
#351=DIRECTION('ref_axis',(0.,0.,-1.));
#352=DIRECTION('center_axis',(-1.,0.,0.));
#353=DIRECTION('ref_axis',(0.,-1.,1.22460635382238E-16));
#354=DIRECTION('center_axis',(-1.,0.,0.));
#355=DIRECTION('ref_axis',(0.,-1.,1.22460635382238E-16));
#356=DIRECTION('center_axis',(1.,0.,0.));
#357=DIRECTION('ref_axis',(0.,1.,0.));
#358=DIRECTION('',(-1.,0.,0.));
#359=DIRECTION('center_axis',(1.,0.,0.));
#360=DIRECTION('ref_axis',(0.,1.,0.));
#361=DIRECTION('center_axis',(1.,0.,0.));
#362=DIRECTION('ref_axis',(0.,1.,0.));
#363=DIRECTION('center_axis',(1.,0.,0.));
#364=DIRECTION('ref_axis',(0.,0.,-1.));
#365=DIRECTION('center_axis',(0.,-1.,-1.22464679914735E-16));
#366=DIRECTION('ref_axis',(0.,-1.22464679914735E-16,1.));
#367=DIRECTION('center_axis',(1.,0.,0.));
#368=DIRECTION('ref_axis',(0.,1.,0.));
#369=DIRECTION('center_axis',(1.,0.,0.));
#370=DIRECTION('ref_axis',(0.,1.,0.));
#371=DIRECTION('center_axis',(1.,0.,0.));
#372=DIRECTION('ref_axis',(0.,1.,0.));
#373=DIRECTION('',(-0.707106781186547,0.707106781186548,8.65956056235494E-17));
#374=DIRECTION('center_axis',(1.,0.,0.));
#375=DIRECTION('ref_axis',(0.,1.,0.));
#376=DIRECTION('center_axis',(1.,0.,0.));
#377=DIRECTION('ref_axis',(0.,1.,0.));
#378=DIRECTION('center_axis',(1.,0.,0.));
#379=DIRECTION('ref_axis',(0.,1.,0.));
#380=DIRECTION('center_axis',(1.,0.,0.));
#381=DIRECTION('ref_axis',(0.,1.,0.));
#382=DIRECTION('center_axis',(1.,0.,0.));
#383=DIRECTION('ref_axis',(0.,1.,0.));
#384=DIRECTION('',(-1.,0.,0.));
#385=DIRECTION('center_axis',(1.,0.,0.));
#386=DIRECTION('ref_axis',(0.,0.,-1.));
#387=DIRECTION('center_axis',(1.,0.,0.));
#388=DIRECTION('ref_axis',(0.,1.,0.));
#389=DIRECTION('center_axis',(1.,0.,0.));
#390=DIRECTION('ref_axis',(0.,1.,0.));
#391=DIRECTION('center_axis',(1.,0.,0.));
#392=DIRECTION('ref_axis',(0.,1.,0.));
#393=DIRECTION('',(-1.,0.,0.));
#394=DIRECTION('center_axis',(-1.,0.,0.));
#395=DIRECTION('ref_axis',(0.,0.,1.));
#396=CARTESIAN_POINT('',(0.,0.,0.));
#397=CARTESIAN_POINT('Origin',(0.7015,0.,0.));
#398=CARTESIAN_POINT('',(0.6565,1.295,0.));
#399=CARTESIAN_POINT('',(0.6565,-1.58591760489582E-16,1.295));
#400=CARTESIAN_POINT('Origin',(0.6565,0.,0.));
#401=CARTESIAN_POINT('',(0.7015,-1.53080849893419E-16,1.25));
#402=CARTESIAN_POINT('Origin',(0.7015,-1.58591760489582E-16,1.295));
#403=CARTESIAN_POINT('',(0.7015,1.25,-3.06161699786838E-16));
#404=CARTESIAN_POINT('Origin',(0.7015,0.,0.));
#405=CARTESIAN_POINT('',(0.7015,-1.25,-1.53080849893419E-16));
#406=CARTESIAN_POINT('Origin',(0.7015,0.,0.));
#407=CARTESIAN_POINT('Origin',(0.7015,0.,0.));
#408=CARTESIAN_POINT('Origin',(0.6565,0.,0.));
#409=CARTESIAN_POINT('Origin',(1.20325,0.,0.));
#410=CARTESIAN_POINT('',(1.745,1.25,0.));
#411=CARTESIAN_POINT('',(1.745,-1.53080849893419E-16,1.25));
#412=CARTESIAN_POINT('Origin',(1.745,0.,0.));
#413=CARTESIAN_POINT('',(1.745,-1.25,-1.53080849893419E-16));
#414=CARTESIAN_POINT('Origin',(1.745,0.,0.));
#415=CARTESIAN_POINT('',(1.20325,-1.25,-1.53080849893419E-16));
#416=CARTESIAN_POINT('Origin',(1.745,0.,0.));
#417=CARTESIAN_POINT('Origin',(0.6565,1.3025,0.));
#418=CARTESIAN_POINT('',(0.6565,1.355,0.));
#419=CARTESIAN_POINT('',(0.6565,-1.355,-1.65939641284466E-16));
#420=CARTESIAN_POINT('Origin',(0.6565,0.,0.));
#421=CARTESIAN_POINT('Origin',(0.6565,0.,0.));
#422=CARTESIAN_POINT('Origin',(1.745,0.,0.));
#423=CARTESIAN_POINT('',(1.745,1.185,-2.90231705855903E-16));
#424=CARTESIAN_POINT('',(1.745,-1.185,-1.45120645698961E-16));
#425=CARTESIAN_POINT('Origin',(1.745,0.,0.));
#426=CARTESIAN_POINT('',(1.745,-1.45120645698961E-16,1.185));
#427=CARTESIAN_POINT('Origin',(1.745,0.,0.));
#428=CARTESIAN_POINT('',(1.75,-1.45732969098535E-16,1.19));
#429=CARTESIAN_POINT('Origin',(1.745,-1.45732969098535E-16,1.19));
#430=CARTESIAN_POINT('',(1.75,1.19,0.));
#431=CARTESIAN_POINT('Origin',(1.75,0.,0.));
#432=CARTESIAN_POINT('Origin',(1.75,0.,0.));
#433=CARTESIAN_POINT('Origin',(1.745,0.,0.));
#434=CARTESIAN_POINT('Origin',(1.75,1.2175,0.));
#435=CARTESIAN_POINT('',(1.75,1.245,-3.04926982101772E-16));
#436=CARTESIAN_POINT('',(1.75,-1.52468526493845E-16,1.245));
#437=CARTESIAN_POINT('Origin',(1.75,0.,0.));
#438=CARTESIAN_POINT('Origin',(1.75,0.,0.));
#439=CARTESIAN_POINT('Origin',(0.875,0.,0.));
#440=CARTESIAN_POINT('',(-3.49676543189026E-16,-1.185,-1.45120645698961E-16));
#441=CARTESIAN_POINT('',(0.875,-1.185,-1.45120645698961E-16));
#442=CARTESIAN_POINT('',(-2.62257407391769E-16,1.185,0.));
#443=CARTESIAN_POINT('Origin',(-2.62257407391769E-16,0.,0.));
#444=CARTESIAN_POINT('Origin',(-2.62257407391769E-16,0.,0.));
#445=CARTESIAN_POINT('Origin',(1.745,0.,0.));
#446=CARTESIAN_POINT('Origin',(1.745,-1.52468526493845E-16,1.245));
#447=CARTESIAN_POINT('Origin',(0.0937499999999997,0.,0.));
#448=CARTESIAN_POINT('',(0.1875,1.456,0.));
#449=CARTESIAN_POINT('',(0.1875,-1.456,-1.78308573955855E-16));
#450=CARTESIAN_POINT('Origin',(0.1875,0.,0.));
#451=CARTESIAN_POINT('Origin',(0.1875,0.,0.));
#452=CARTESIAN_POINT('',(-2.51330015417112E-16,-1.2685,-1.55346446471842E-16));
#453=CARTESIAN_POINT('',(0.0937499999999997,-1.36225,-1.66827510213848E-16));
#454=CARTESIAN_POINT('',(-2.29475231467798E-16,1.2685,0.));
#455=CARTESIAN_POINT('Origin',(-2.29475231467798E-16,0.,0.));
#456=CARTESIAN_POINT('Origin',(-2.29475231467798E-16,0.,0.));
#457=CARTESIAN_POINT('Origin',(0.3125,0.,0.));
#458=CARTESIAN_POINT('',(0.4375,1.456,0.));
#459=CARTESIAN_POINT('',(0.4375,-1.456,-1.78308573955855E-16));
#460=CARTESIAN_POINT('Origin',(0.4375,0.,0.));
#461=CARTESIAN_POINT('Origin',(0.4375,0.,0.));
#462=CARTESIAN_POINT('',(0.3125,-1.456,-1.78308573955855E-16));
#463=CARTESIAN_POINT('Origin',(0.4375,1.4055,0.));
#464=CARTESIAN_POINT('',(0.4375,1.355,0.));
#465=CARTESIAN_POINT('',(0.4375,-1.355,-1.65939641284466E-16));
#466=CARTESIAN_POINT('Origin',(0.4375,0.,0.));
#467=CARTESIAN_POINT('Origin',(0.4375,0.,0.));
#468=CARTESIAN_POINT('Origin',(0.547,0.,0.));
#469=CARTESIAN_POINT('',(0.547,-1.355,-1.65939641284466E-16));
#470=CARTESIAN_POINT('Origin',(-2.45866319429784E-16,1.22675,0.));
#471=UNCERTAINTY_MEASURE_WITH_UNIT(LENGTH_MEASURE(0.000393700787401575),
#476,'DISTANCE_ACCURACY_VALUE',
'Maximum model space distance between geometric entities at asserted c
onnectivities');
#472=UNCERTAINTY_MEASURE_WITH_UNIT(LENGTH_MEASURE(0.000393700787401575),
#476,'DISTANCE_ACCURACY_VALUE',
'Maximum model space distance between geometric entities at asserted c
onnectivities');
#473=(
GEOMETRIC_REPRESENTATION_CONTEXT(3)
GLOBAL_UNCERTAINTY_ASSIGNED_CONTEXT((#471))
GLOBAL_UNIT_ASSIGNED_CONTEXT((#476,#480,#481))
REPRESENTATION_CONTEXT('','3D')
);
#474=(
GEOMETRIC_REPRESENTATION_CONTEXT(3)
GLOBAL_UNCERTAINTY_ASSIGNED_CONTEXT((#472))
GLOBAL_UNIT_ASSIGNED_CONTEXT((#476,#480,#481))
REPRESENTATION_CONTEXT('','3D')
);
#475=DIMENSIONAL_EXPONENTS(1.,0.,0.,0.,0.,0.,0.);
#476=(
CONVERSION_BASED_UNIT('inch',#479)
LENGTH_UNIT()
NAMED_UNIT(#475)
);
#477=(
LENGTH_UNIT()
NAMED_UNIT(*)
SI_UNIT(.MILLI.,.METRE.)
);
#478=(
LENGTH_UNIT()
NAMED_UNIT(*)
SI_UNIT(.CENTI.,.METRE.)
);
#479=LENGTH_MEASURE_WITH_UNIT(LENGTH_MEASURE(25.4),#477);
#480=(
NAMED_UNIT(*)
PLANE_ANGLE_UNIT()
SI_UNIT($,.RADIAN.)
);
#481=(
NAMED_UNIT(*)
SI_UNIT($,.STERADIAN.)
SOLID_ANGLE_UNIT()
);
#482=SHAPE_DEFINITION_REPRESENTATION(#483,#484);
#483=PRODUCT_DEFINITION_SHAPE('',$,#486);
#484=SHAPE_REPRESENTATION('',(#262),#473);
#485=PRODUCT_DEFINITION_CONTEXT('part definition',#490,'design');
#486=PRODUCT_DEFINITION('L14A7-2.5','L14A7-2.5',#487,#485);
#487=PRODUCT_DEFINITION_FORMATION('',$,#492);
#488=PRODUCT_RELATED_PRODUCT_CATEGORY('L14A7-2.5','L14A7-2.5',(#492));
#489=APPLICATION_PROTOCOL_DEFINITION('international standard',
'automotive_design',2009,#490);
#490=APPLICATION_CONTEXT(
'Core Data for Automotive Mechanical Design Process');
#491=PRODUCT_CONTEXT('part definition',#490,'mechanical');
#492=PRODUCT('L14A7-2.5','L14A7-2.5',$,(#491));
#493=PRESENTATION_STYLE_ASSIGNMENT((#494));
#494=SURFACE_STYLE_USAGE(.BOTH.,#497);
#495=SURFACE_STYLE_RENDERING_WITH_PROPERTIES($,#501,(#496));
#496=SURFACE_STYLE_TRANSPARENT(0.);
#497=SURFACE_SIDE_STYLE('',(#498,#495));
#498=SURFACE_STYLE_FILL_AREA(#499);
#499=FILL_AREA_STYLE('',(#500));
#500=FILL_AREA_STYLE_COLOUR('',#501);
#501=COLOUR_RGB('',0.749019607843137,0.749019607843137,0.749019607843137);
ENDSEC;
END-ISO-10303-21;
