ISO-10303-21;
HEADER;
/* Generated by software containing ST-Developer
 * from STEP Tools, Inc. (www.steptools.com) 
 */

FILE_DESCRIPTION(
/* description */ (''),
/* implementation_level */ '2;1');

FILE_NAME(
/* name */ 'L14AJP-1.5.stp',
/* time_stamp */ '2024-03-26T13:36:22-04:00',
/* author */ ('brad'),
/* organization */ (''),
/* preprocessor_version */ 'ST-DEVELOPER v20',
/* originating_system */ 'Autodesk Inventor 2024',
/* authorisation */ '');

FILE_SCHEMA (('AUTOMOTIVE_DESIGN { 1 0 10303 214 3 1 1 }'));
ENDSEC;

DATA;
#10=MECHANICAL_DESIGN_GEOMETRIC_PRESENTATION_REPRESENTATION('',(#13),#376);
#11=SHAPE_REPRESENTATION_RELATIONSHIP('SRR','None',#387,#12);
#12=ADVANCED_BREP_SHAPE_REPRESENTATION('',(#14),#375);
#13=STYLED_ITEM('',(#396),#14);
#14=MANIFOLD_SOLID_BREP('Solid1',#194);
#15=LINE('',#333,#20);
#16=LINE('',#343,#21);
#17=LINE('',#358,#22);
#18=LINE('',#366,#23);
#19=LINE('',#371,#24);
#20=VECTOR('',#266,0.685);
#21=VECTOR('',#279,0.75);
#22=VECTOR('',#298,0.828);
#23=VECTOR('',#309,0.924);
#24=VECTOR('',#316,0.838);
#25=CYLINDRICAL_SURFACE('',#223,0.685);
#26=CYLINDRICAL_SURFACE('',#229,0.75);
#27=CYLINDRICAL_SURFACE('',#237,0.828);
#28=CYLINDRICAL_SURFACE('',#242,0.924);
#29=CYLINDRICAL_SURFACE('',#246,0.838);
#30=FACE_BOUND('',#55,.T.);
#31=FACE_BOUND('',#61,.T.);
#32=FACE_BOUND('',#64,.T.);
#33=FACE_BOUND('',#67,.T.);
#34=FACE_BOUND('',#70,.T.);
#35=PLANE('',#221);
#36=PLANE('',#235);
#37=PLANE('',#240);
#38=PLANE('',#244);
#39=PLANE('',#247);
#40=FACE_OUTER_BOUND('',#53,.T.);
#41=FACE_OUTER_BOUND('',#54,.T.);
#42=FACE_OUTER_BOUND('',#56,.T.);
#43=FACE_OUTER_BOUND('',#57,.T.);
#44=FACE_OUTER_BOUND('',#58,.T.);
#45=FACE_OUTER_BOUND('',#59,.T.);
#46=FACE_OUTER_BOUND('',#60,.T.);
#47=FACE_OUTER_BOUND('',#62,.T.);
#48=FACE_OUTER_BOUND('',#63,.T.);
#49=FACE_OUTER_BOUND('',#65,.T.);
#50=FACE_OUTER_BOUND('',#66,.T.);
#51=FACE_OUTER_BOUND('',#68,.T.);
#52=FACE_OUTER_BOUND('',#69,.T.);
#53=EDGE_LOOP('',(#130,#131,#132,#133,#134));
#54=EDGE_LOOP('',(#135));
#55=EDGE_LOOP('',(#136));
#56=EDGE_LOOP('',(#137,#138,#139,#140,#141));
#57=EDGE_LOOP('',(#142,#143,#144,#145,#146));
#58=EDGE_LOOP('',(#147,#148,#149,#150,#151,#152));
#59=EDGE_LOOP('',(#153,#154,#155,#156,#157));
#60=EDGE_LOOP('',(#158));
#61=EDGE_LOOP('',(#159));
#62=EDGE_LOOP('',(#160,#161,#162,#163));
#63=EDGE_LOOP('',(#164));
#64=EDGE_LOOP('',(#165));
#65=EDGE_LOOP('',(#166,#167,#168,#169));
#66=EDGE_LOOP('',(#170));
#67=EDGE_LOOP('',(#171));
#68=EDGE_LOOP('',(#172,#173,#174,#175));
#69=EDGE_LOOP('',(#176));
#70=EDGE_LOOP('',(#177));
#71=CIRCLE('',#217,0.685);
#72=CIRCLE('',#218,0.685);
#73=CIRCLE('',#219,0.005);
#74=CIRCLE('',#220,0.69);
#75=CIRCLE('',#222,0.745);
#76=CIRCLE('',#224,0.685);
#77=CIRCLE('',#226,0.005);
#78=CIRCLE('',#227,0.75);
#79=CIRCLE('',#228,0.75);
#80=CIRCLE('',#230,0.75);
#81=CIRCLE('',#231,0.75);
#82=CIRCLE('',#233,0.81);
#83=CIRCLE('',#234,0.06);
#84=CIRCLE('',#236,0.838);
#85=CIRCLE('',#238,0.828);
#86=CIRCLE('',#239,0.828);
#87=CIRCLE('',#241,0.924);
#88=CIRCLE('',#243,0.924);
#89=CIRCLE('',#245,0.838);
#90=VERTEX_POINT('',#321);
#91=VERTEX_POINT('',#322);
#92=VERTEX_POINT('',#325);
#93=VERTEX_POINT('',#329);
#94=VERTEX_POINT('',#332);
#95=VERTEX_POINT('',#336);
#96=VERTEX_POINT('',#338);
#97=VERTEX_POINT('',#342);
#98=VERTEX_POINT('',#344);
#99=VERTEX_POINT('',#348);
#100=VERTEX_POINT('',#352);
#101=VERTEX_POINT('',#355);
#102=VERTEX_POINT('',#357);
#103=VERTEX_POINT('',#361);
#104=VERTEX_POINT('',#364);
#105=VERTEX_POINT('',#368);
#106=EDGE_CURVE('',#90,#91,#71,.T.);
#107=EDGE_CURVE('',#91,#90,#72,.T.);
#108=EDGE_CURVE('',#90,#92,#73,.T.);
#109=EDGE_CURVE('',#92,#92,#74,.T.);
#110=EDGE_CURVE('',#93,#93,#75,.T.);
#111=EDGE_CURVE('',#91,#94,#15,.T.);
#112=EDGE_CURVE('',#94,#94,#76,.T.);
#113=EDGE_CURVE('',#93,#95,#77,.T.);
#114=EDGE_CURVE('',#95,#96,#78,.T.);
#115=EDGE_CURVE('',#96,#95,#79,.T.);
#116=EDGE_CURVE('',#96,#97,#16,.T.);
#117=EDGE_CURVE('',#98,#97,#80,.T.);
#118=EDGE_CURVE('',#97,#98,#81,.T.);
#119=EDGE_CURVE('',#99,#99,#82,.T.);
#120=EDGE_CURVE('',#99,#98,#83,.T.);
#121=EDGE_CURVE('',#100,#100,#84,.T.);
#122=EDGE_CURVE('',#101,#101,#85,.T.);
#123=EDGE_CURVE('',#101,#102,#17,.T.);
#124=EDGE_CURVE('',#102,#102,#86,.T.);
#125=EDGE_CURVE('',#103,#103,#87,.T.);
#126=EDGE_CURVE('',#104,#104,#88,.T.);
#127=EDGE_CURVE('',#104,#103,#18,.T.);
#128=EDGE_CURVE('',#105,#105,#89,.T.);
#129=EDGE_CURVE('',#100,#105,#19,.T.);
#130=ORIENTED_EDGE('',*,*,#106,.T.);
#131=ORIENTED_EDGE('',*,*,#107,.T.);
#132=ORIENTED_EDGE('',*,*,#108,.T.);
#133=ORIENTED_EDGE('',*,*,#109,.T.);
#134=ORIENTED_EDGE('',*,*,#108,.F.);
#135=ORIENTED_EDGE('',*,*,#110,.F.);
#136=ORIENTED_EDGE('',*,*,#109,.F.);
#137=ORIENTED_EDGE('',*,*,#106,.F.);
#138=ORIENTED_EDGE('',*,*,#107,.F.);
#139=ORIENTED_EDGE('',*,*,#111,.T.);
#140=ORIENTED_EDGE('',*,*,#112,.F.);
#141=ORIENTED_EDGE('',*,*,#111,.F.);
#142=ORIENTED_EDGE('',*,*,#110,.T.);
#143=ORIENTED_EDGE('',*,*,#113,.T.);
#144=ORIENTED_EDGE('',*,*,#114,.T.);
#145=ORIENTED_EDGE('',*,*,#115,.T.);
#146=ORIENTED_EDGE('',*,*,#113,.F.);
#147=ORIENTED_EDGE('',*,*,#115,.F.);
#148=ORIENTED_EDGE('',*,*,#116,.T.);
#149=ORIENTED_EDGE('',*,*,#117,.F.);
#150=ORIENTED_EDGE('',*,*,#118,.F.);
#151=ORIENTED_EDGE('',*,*,#116,.F.);
#152=ORIENTED_EDGE('',*,*,#114,.F.);
#153=ORIENTED_EDGE('',*,*,#119,.T.);
#154=ORIENTED_EDGE('',*,*,#120,.T.);
#155=ORIENTED_EDGE('',*,*,#117,.T.);
#156=ORIENTED_EDGE('',*,*,#118,.T.);
#157=ORIENTED_EDGE('',*,*,#120,.F.);
#158=ORIENTED_EDGE('',*,*,#121,.T.);
#159=ORIENTED_EDGE('',*,*,#119,.F.);
#160=ORIENTED_EDGE('',*,*,#122,.F.);
#161=ORIENTED_EDGE('',*,*,#123,.T.);
#162=ORIENTED_EDGE('',*,*,#124,.T.);
#163=ORIENTED_EDGE('',*,*,#123,.F.);
#164=ORIENTED_EDGE('',*,*,#125,.F.);
#165=ORIENTED_EDGE('',*,*,#122,.T.);
#166=ORIENTED_EDGE('',*,*,#126,.F.);
#167=ORIENTED_EDGE('',*,*,#127,.T.);
#168=ORIENTED_EDGE('',*,*,#125,.T.);
#169=ORIENTED_EDGE('',*,*,#127,.F.);
#170=ORIENTED_EDGE('',*,*,#126,.T.);
#171=ORIENTED_EDGE('',*,*,#128,.F.);
#172=ORIENTED_EDGE('',*,*,#121,.F.);
#173=ORIENTED_EDGE('',*,*,#129,.T.);
#174=ORIENTED_EDGE('',*,*,#128,.T.);
#175=ORIENTED_EDGE('',*,*,#129,.F.);
#176=ORIENTED_EDGE('',*,*,#124,.F.);
#177=ORIENTED_EDGE('',*,*,#112,.T.);
#178=TOROIDAL_SURFACE('',#216,0.69,0.005);
#179=TOROIDAL_SURFACE('',#225,0.745,0.005);
#180=TOROIDAL_SURFACE('',#232,0.81,0.06);
#181=ADVANCED_FACE('',(#40),#178,.T.);
#182=ADVANCED_FACE('',(#41,#30),#35,.T.);
#183=ADVANCED_FACE('',(#42),#25,.F.);
#184=ADVANCED_FACE('',(#43),#179,.T.);
#185=ADVANCED_FACE('',(#44),#26,.T.);
#186=ADVANCED_FACE('',(#45),#180,.F.);
#187=ADVANCED_FACE('',(#46,#31),#36,.T.);
#188=ADVANCED_FACE('',(#47),#27,.T.);
#189=ADVANCED_FACE('',(#48,#32),#37,.T.);
#190=ADVANCED_FACE('',(#49),#28,.T.);
#191=ADVANCED_FACE('',(#50,#33),#38,.T.);
#192=ADVANCED_FACE('',(#51),#29,.T.);
#193=ADVANCED_FACE('',(#52,#34),#39,.T.);
#194=CLOSED_SHELL('',(#181,#182,#183,#184,#185,#186,#187,#188,#189,#190,
#191,#192,#193));
#195=DERIVED_UNIT_ELEMENT(#197,1.);
#196=DERIVED_UNIT_ELEMENT(#381,-3.);
#197=(
CONVERSION_BASED_UNIT('gram',#199)
MASS_UNIT()
NAMED_UNIT(#378)
);
#198=(
MASS_UNIT()
NAMED_UNIT(*)
SI_UNIT(.KILO.,.GRAM.)
);
#199=MASS_MEASURE_WITH_UNIT(MASS_MEASURE(0.001),#198);
#200=DERIVED_UNIT((#195,#196));
#201=MEASURE_REPRESENTATION_ITEM('density measure',
POSITIVE_RATIO_MEASURE(1.),#200);
#202=PROPERTY_DEFINITION_REPRESENTATION(#207,#204);
#203=PROPERTY_DEFINITION_REPRESENTATION(#208,#205);
#204=REPRESENTATION('material name',(#206),#375);
#205=REPRESENTATION('density',(#201),#375);
#206=DESCRIPTIVE_REPRESENTATION_ITEM('Generic','Generic');
#207=PROPERTY_DEFINITION('material property','material name',#389);
#208=PROPERTY_DEFINITION('material property','density of part',#389);
#209=DATE_TIME_ROLE('creation_date');
#210=APPLIED_DATE_AND_TIME_ASSIGNMENT(#211,#209,(#389));
#211=DATE_AND_TIME(#212,#213);
#212=CALENDAR_DATE(2008,25,1);
#213=LOCAL_TIME(0,0,0.,#214);
#214=COORDINATED_UNIVERSAL_TIME_OFFSET(0,0,.BEHIND.);
#215=AXIS2_PLACEMENT_3D('',#319,#248,#249);
#216=AXIS2_PLACEMENT_3D('',#320,#250,#251);
#217=AXIS2_PLACEMENT_3D('',#323,#252,#253);
#218=AXIS2_PLACEMENT_3D('',#324,#254,#255);
#219=AXIS2_PLACEMENT_3D('',#326,#256,#257);
#220=AXIS2_PLACEMENT_3D('',#327,#258,#259);
#221=AXIS2_PLACEMENT_3D('',#328,#260,#261);
#222=AXIS2_PLACEMENT_3D('',#330,#262,#263);
#223=AXIS2_PLACEMENT_3D('',#331,#264,#265);
#224=AXIS2_PLACEMENT_3D('',#334,#267,#268);
#225=AXIS2_PLACEMENT_3D('',#335,#269,#270);
#226=AXIS2_PLACEMENT_3D('',#337,#271,#272);
#227=AXIS2_PLACEMENT_3D('',#339,#273,#274);
#228=AXIS2_PLACEMENT_3D('',#340,#275,#276);
#229=AXIS2_PLACEMENT_3D('',#341,#277,#278);
#230=AXIS2_PLACEMENT_3D('',#345,#280,#281);
#231=AXIS2_PLACEMENT_3D('',#346,#282,#283);
#232=AXIS2_PLACEMENT_3D('',#347,#284,#285);
#233=AXIS2_PLACEMENT_3D('',#349,#286,#287);
#234=AXIS2_PLACEMENT_3D('',#350,#288,#289);
#235=AXIS2_PLACEMENT_3D('',#351,#290,#291);
#236=AXIS2_PLACEMENT_3D('',#353,#292,#293);
#237=AXIS2_PLACEMENT_3D('',#354,#294,#295);
#238=AXIS2_PLACEMENT_3D('',#356,#296,#297);
#239=AXIS2_PLACEMENT_3D('',#359,#299,#300);
#240=AXIS2_PLACEMENT_3D('',#360,#301,#302);
#241=AXIS2_PLACEMENT_3D('',#362,#303,#304);
#242=AXIS2_PLACEMENT_3D('',#363,#305,#306);
#243=AXIS2_PLACEMENT_3D('',#365,#307,#308);
#244=AXIS2_PLACEMENT_3D('',#367,#310,#311);
#245=AXIS2_PLACEMENT_3D('',#369,#312,#313);
#246=AXIS2_PLACEMENT_3D('',#370,#314,#315);
#247=AXIS2_PLACEMENT_3D('',#372,#317,#318);
#248=DIRECTION('axis',(0.,0.,1.));
#249=DIRECTION('refdir',(1.,0.,0.));
#250=DIRECTION('center_axis',(1.,-1.86046854601501E-33,0.));
#251=DIRECTION('ref_axis',(0.,0.,-1.));
#252=DIRECTION('center_axis',(-1.,1.86046854601501E-33,0.));
#253=DIRECTION('ref_axis',(0.,-1.,1.22460635382238E-16));
#254=DIRECTION('center_axis',(-1.,1.86046854601501E-33,0.));
#255=DIRECTION('ref_axis',(0.,-1.,1.22460635382238E-16));
#256=DIRECTION('center_axis',(-1.86046854601501E-33,-1.,-1.22464679914735E-16));
#257=DIRECTION('ref_axis',(0.,-1.22464679914735E-16,1.));
#258=DIRECTION('center_axis',(1.,-1.86046854601501E-33,0.));
#259=DIRECTION('ref_axis',(-1.86046854601501E-33,-1.,1.22460635382238E-16));
#260=DIRECTION('center_axis',(1.,-1.86046854601501E-33,0.));
#261=DIRECTION('ref_axis',(0.,0.,-1.));
#262=DIRECTION('center_axis',(-1.,1.86046854601501E-33,0.));
#263=DIRECTION('ref_axis',(-1.86046854601501E-33,-1.,1.22460635382238E-16));
#264=DIRECTION('center_axis',(1.,-1.86046854601501E-33,0.));
#265=DIRECTION('ref_axis',(0.,1.,0.));
#266=DIRECTION('',(-1.,1.86046854601501E-33,0.));
#267=DIRECTION('center_axis',(1.,-1.86046854601501E-33,0.));
#268=DIRECTION('ref_axis',(0.,1.,0.));
#269=DIRECTION('center_axis',(1.,-1.86046854601501E-33,0.));
#270=DIRECTION('ref_axis',(0.,0.,-1.));
#271=DIRECTION('center_axis',(-1.86046854601501E-33,-1.,-1.22464679914735E-16));
#272=DIRECTION('ref_axis',(0.,-1.22464679914735E-16,1.));
#273=DIRECTION('center_axis',(1.,-1.86046854601501E-33,0.));
#274=DIRECTION('ref_axis',(0.,-1.,1.22460635382238E-16));
#275=DIRECTION('center_axis',(1.,-1.86046854601501E-33,0.));
#276=DIRECTION('ref_axis',(0.,-1.,1.22460635382238E-16));
#277=DIRECTION('center_axis',(1.,-1.86046854601501E-33,0.));
#278=DIRECTION('ref_axis',(0.,1.,0.));
#279=DIRECTION('',(-1.,1.86046854601501E-33,0.));
#280=DIRECTION('center_axis',(-1.,1.86046854601501E-33,0.));
#281=DIRECTION('ref_axis',(0.,-1.,1.22460635382238E-16));
#282=DIRECTION('center_axis',(-1.,1.86046854601501E-33,0.));
#283=DIRECTION('ref_axis',(0.,-1.,1.22460635382238E-16));
#284=DIRECTION('center_axis',(1.,-1.86046854601501E-33,0.));
#285=DIRECTION('ref_axis',(0.,0.,-1.));
#286=DIRECTION('center_axis',(1.,-1.86046854601501E-33,0.));
#287=DIRECTION('ref_axis',(-1.86046854601501E-33,-1.,1.22460635382238E-16));
#288=DIRECTION('center_axis',(-1.86046854601501E-33,-1.,-1.22464679914735E-16));
#289=DIRECTION('ref_axis',(0.,-1.22464679914735E-16,1.));
#290=DIRECTION('center_axis',(1.,-1.86046854601501E-33,0.));
#291=DIRECTION('ref_axis',(0.,0.,-1.));
#292=DIRECTION('center_axis',(1.,-1.86046854601501E-33,0.));
#293=DIRECTION('ref_axis',(0.,1.,0.));
#294=DIRECTION('center_axis',(1.,-1.86046854601501E-33,0.));
#295=DIRECTION('ref_axis',(0.,1.,0.));
#296=DIRECTION('center_axis',(1.,-1.86046854601501E-33,0.));
#297=DIRECTION('ref_axis',(0.,1.,0.));
#298=DIRECTION('',(-1.,1.86046854601501E-33,0.));
#299=DIRECTION('center_axis',(1.,-1.86046854601501E-33,0.));
#300=DIRECTION('ref_axis',(0.,1.,0.));
#301=DIRECTION('center_axis',(-1.,1.86046854601501E-33,0.));
#302=DIRECTION('ref_axis',(0.,0.,1.));
#303=DIRECTION('center_axis',(1.,-1.86046854601501E-33,0.));
#304=DIRECTION('ref_axis',(0.,1.,0.));
#305=DIRECTION('center_axis',(1.,-1.86046854601501E-33,0.));
#306=DIRECTION('ref_axis',(0.,1.,0.));
#307=DIRECTION('center_axis',(1.,-1.86046854601501E-33,0.));
#308=DIRECTION('ref_axis',(0.,1.,0.));
#309=DIRECTION('',(-1.,1.86046854601501E-33,0.));
#310=DIRECTION('center_axis',(1.,-1.86046854601501E-33,0.));
#311=DIRECTION('ref_axis',(0.,0.,-1.));
#312=DIRECTION('center_axis',(1.,-1.86046854601501E-33,0.));
#313=DIRECTION('ref_axis',(0.,1.,0.));
#314=DIRECTION('center_axis',(1.,-1.86046854601501E-33,0.));
#315=DIRECTION('ref_axis',(0.,1.,0.));
#316=DIRECTION('',(-1.,1.86046854601501E-33,0.));
#317=DIRECTION('center_axis',(-1.,1.86046854601501E-33,0.));
#318=DIRECTION('ref_axis',(0.,0.,1.));
#319=CARTESIAN_POINT('',(0.,0.,0.));
#320=CARTESIAN_POINT('Origin',(1.495,-2.78140047629244E-33,0.));
#321=CARTESIAN_POINT('',(1.495,-8.38883057415937E-17,0.685));
#322=CARTESIAN_POINT('',(1.495,-0.685,-8.38883057415937E-17));
#323=CARTESIAN_POINT('Origin',(1.495,-2.78140047629244E-33,0.));
#324=CARTESIAN_POINT('Origin',(1.495,-2.78140047629244E-33,0.));
#325=CARTESIAN_POINT('',(1.5,-8.45006291411674E-17,0.69));
#326=CARTESIAN_POINT('Origin',(1.495,-8.45006291411674E-17,0.69));
#327=CARTESIAN_POINT('Origin',(1.5,-2.79070281902252E-33,0.));
#328=CARTESIAN_POINT('Origin',(1.5,0.7175,0.));
#329=CARTESIAN_POINT('',(1.5,-9.12361865364778E-17,0.745));
#330=CARTESIAN_POINT('Origin',(1.5,-2.79070281902252E-33,0.));
#331=CARTESIAN_POINT('Origin',(0.75,-1.39535140951126E-33,0.));
#332=CARTESIAN_POINT('',(-8.74191357972564E-17,-0.685,-8.38883057415937E-17));
#333=CARTESIAN_POINT('',(0.75,-0.685,-8.38883057415937E-17));
#334=CARTESIAN_POINT('Origin',(-8.74191357972564E-17,1.6264055247061E-49,
0.));
#335=CARTESIAN_POINT('Origin',(1.495,-2.78140047629244E-33,0.));
#336=CARTESIAN_POINT('',(1.495,-9.18485099360515E-17,0.75));
#337=CARTESIAN_POINT('Origin',(1.495,-9.12361865364778E-17,0.745));
#338=CARTESIAN_POINT('',(1.495,-0.75,-9.18485099360515E-17));
#339=CARTESIAN_POINT('Origin',(1.495,-2.78140047629244E-33,0.));
#340=CARTESIAN_POINT('Origin',(1.495,-2.78140047629244E-33,0.));
#341=CARTESIAN_POINT('Origin',(0.992,-1.84558479764689E-33,0.));
#342=CARTESIAN_POINT('',(0.544,-0.75,-9.18485099360515E-17));
#343=CARTESIAN_POINT('',(0.992,-0.75,-9.18485099360515E-17));
#344=CARTESIAN_POINT('',(0.544,-9.18485099360515E-17,0.75));
#345=CARTESIAN_POINT('Origin',(0.544,-1.01209488903217E-33,0.));
#346=CARTESIAN_POINT('Origin',(0.544,-1.01209488903217E-33,0.));
#347=CARTESIAN_POINT('Origin',(0.544,-1.01209488903217E-33,0.));
#348=CARTESIAN_POINT('',(0.484,-9.91963907309356E-17,0.81));
#349=CARTESIAN_POINT('Origin',(0.484,-9.00466776271265E-34,0.));
#350=CARTESIAN_POINT('Origin',(0.544,-9.91963907309356E-17,0.81));
#351=CARTESIAN_POINT('Origin',(0.484,0.794,0.));
#352=CARTESIAN_POINT('',(0.484,-0.838,-1.02625401768548E-16));
#353=CARTESIAN_POINT('Origin',(0.484,-9.00466776271265E-34,0.));
#354=CARTESIAN_POINT('Origin',(0.0934999999999998,-1.73953809052403E-34,
0.));
#355=CARTESIAN_POINT('',(0.187,-0.828,-1.01400754969401E-16));
#356=CARTESIAN_POINT('Origin',(0.187,-3.47907618104807E-34,0.));
#357=CARTESIAN_POINT('',(-1.52983487645199E-16,-0.828,-1.01400754969401E-16));
#358=CARTESIAN_POINT('',(0.0934999999999998,-0.828,-1.01400754969401E-16));
#359=CARTESIAN_POINT('Origin',(-1.52983487645199E-16,2.84620966823568E-49,
0.));
#360=CARTESIAN_POINT('Origin',(0.187,0.876,0.));
#361=CARTESIAN_POINT('',(0.187,-0.924,-1.13157364241215E-16));
#362=CARTESIAN_POINT('Origin',(0.187,-3.47907618104807E-34,0.));
#363=CARTESIAN_POINT('Origin',(0.2255,-4.19535657126385E-34,0.));
#364=CARTESIAN_POINT('',(0.264,-0.924,-1.13157364241215E-16));
#365=CARTESIAN_POINT('Origin',(0.264,-4.91163696147963E-34,0.));
#366=CARTESIAN_POINT('',(0.2255,-0.924,-1.13157364241215E-16));
#367=CARTESIAN_POINT('Origin',(0.264,0.881,0.));
#368=CARTESIAN_POINT('',(0.264,-0.838,-1.02625401768548E-16));
#369=CARTESIAN_POINT('Origin',(0.264,-4.91163696147963E-34,0.));
#370=CARTESIAN_POINT('Origin',(0.374,-6.95815236209614E-34,0.));
#371=CARTESIAN_POINT('',(0.374,-0.838,-1.02625401768548E-16));
#372=CARTESIAN_POINT('Origin',(-1.20201311721228E-16,0.7565,0.));
#373=UNCERTAINTY_MEASURE_WITH_UNIT(LENGTH_MEASURE(0.000393700787401575),
#379,'DISTANCE_ACCURACY_VALUE',
'Maximum model space distance between geometric entities at asserted c
onnectivities');
#374=UNCERTAINTY_MEASURE_WITH_UNIT(LENGTH_MEASURE(0.000393700787401575),
#379,'DISTANCE_ACCURACY_VALUE',
'Maximum model space distance between geometric entities at asserted c
onnectivities');
#375=(
GEOMETRIC_REPRESENTATION_CONTEXT(3)
GLOBAL_UNCERTAINTY_ASSIGNED_CONTEXT((#373))
GLOBAL_UNIT_ASSIGNED_CONTEXT((#379,#383,#384))
REPRESENTATION_CONTEXT('','3D')
);
#376=(
GEOMETRIC_REPRESENTATION_CONTEXT(3)
GLOBAL_UNCERTAINTY_ASSIGNED_CONTEXT((#374))
GLOBAL_UNIT_ASSIGNED_CONTEXT((#379,#383,#384))
REPRESENTATION_CONTEXT('','3D')
);
#377=DIMENSIONAL_EXPONENTS(1.,0.,0.,0.,0.,0.,0.);
#378=DIMENSIONAL_EXPONENTS(0.,1.,0.,0.,0.,0.,0.);
#379=(
CONVERSION_BASED_UNIT('inch',#382)
LENGTH_UNIT()
NAMED_UNIT(#377)
);
#380=(
LENGTH_UNIT()
NAMED_UNIT(*)
SI_UNIT(.MILLI.,.METRE.)
);
#381=(
LENGTH_UNIT()
NAMED_UNIT(*)
SI_UNIT(.CENTI.,.METRE.)
);
#382=LENGTH_MEASURE_WITH_UNIT(LENGTH_MEASURE(25.4),#380);
#383=(
NAMED_UNIT(*)
PLANE_ANGLE_UNIT()
SI_UNIT($,.RADIAN.)
);
#384=(
NAMED_UNIT(*)
SI_UNIT($,.STERADIAN.)
SOLID_ANGLE_UNIT()
);
#385=SHAPE_DEFINITION_REPRESENTATION(#386,#387);
#386=PRODUCT_DEFINITION_SHAPE('',$,#389);
#387=SHAPE_REPRESENTATION('',(#215),#375);
#388=PRODUCT_DEFINITION_CONTEXT('part definition',#393,'design');
#389=PRODUCT_DEFINITION('L14AJP-1.5','L14AJP-1.5',#390,#388);
#390=PRODUCT_DEFINITION_FORMATION('',$,#395);
#391=PRODUCT_RELATED_PRODUCT_CATEGORY('L14AJP-1.5','L14AJP-1.5',(#395));
#392=APPLICATION_PROTOCOL_DEFINITION('international standard',
'automotive_design',2009,#393);
#393=APPLICATION_CONTEXT(
'Core Data for Automotive Mechanical Design Process');
#394=PRODUCT_CONTEXT('part definition',#393,'mechanical');
#395=PRODUCT('L14AJP-1.5','L14AJP-1.5',$,(#394));
#396=PRESENTATION_STYLE_ASSIGNMENT((#397));
#397=SURFACE_STYLE_USAGE(.BOTH.,#400);
#398=SURFACE_STYLE_RENDERING_WITH_PROPERTIES($,#404,(#399));
#399=SURFACE_STYLE_TRANSPARENT(0.);
#400=SURFACE_SIDE_STYLE('',(#401,#398));
#401=SURFACE_STYLE_FILL_AREA(#402);
#402=FILL_AREA_STYLE('',(#403));
#403=FILL_AREA_STYLE_COLOUR('',#404);
#404=COLOUR_RGB('',0.749019607843137,0.749019607843137,0.749019607843137);
ENDSEC;
END-ISO-10303-21;
