ISO-10303-21;
HEADER;
/* Generated by software containing ST-Developer
 * from STEP Tools, Inc. (www.steptools.com) 
 */

FILE_DESCRIPTION(
/* description */ (''),
/* implementation_level */ '2;1');

FILE_NAME(
/* name */ 
'W:\\AUTOCAD\\AutoCad - Projects\\L\\L14AJP\\STEP FILES\\L14AJP-2.stp',

/* time_stamp */ '2022-10-26T11:58:23-04:00',
/* author */ ('ken'),
/* organization */ (''),
/* preprocessor_version */ 'ST-DEVELOPER v18.1',
/* originating_system */ 'Autodesk Inventor 2020',
/* authorisation */ '');

FILE_SCHEMA (('AUTOMOTIVE_DESIGN { 1 0 10303 214 3 1 1 }'));
ENDSEC;

DATA;
#10=MECHANICAL_DESIGN_GEOMETRIC_PRESENTATION_REPRESENTATION('',(#13),#504);
#11=SHAPE_REPRESENTATION_RELATIONSHIP('SRR','None',#514,#12);
#12=ADVANCED_BREP_SHAPE_REPRESENTATION('',(#14),#503);
#13=STYLED_ITEM('',(#523),#14);
#14=MANIFOLD_SOLID_BREP('Solid1',#259);
#15=FACE_BOUND('',#56,.T.);
#16=FACE_BOUND('',#59,.T.);
#17=FACE_BOUND('',#64,.T.);
#18=FACE_BOUND('',#67,.T.);
#19=FACE_BOUND('',#70,.T.);
#20=PLANE('',#290);
#21=PLANE('',#300);
#22=PLANE('',#313);
#23=PLANE('',#319);
#24=PLANE('',#323);
#25=LINE('',#440,#30);
#26=LINE('',#466,#31);
#27=LINE('',#478,#32);
#28=LINE('',#492,#33);
#29=LINE('',#499,#34);
#30=VECTOR('',#346,1.);
#31=VECTOR('',#377,0.935);
#32=VECTOR('',#392,1.0935);
#33=VECTOR('',#409,1.19);
#34=VECTOR('',#418,1.096);
#35=CYLINDRICAL_SURFACE('',#286,1.);
#36=CYLINDRICAL_SURFACE('',#303,0.935);
#37=CYLINDRICAL_SURFACE('',#308,1.0935);
#38=CYLINDRICAL_SURFACE('',#316,1.19);
#39=CYLINDRICAL_SURFACE('',#322,1.096);
#40=FACE_OUTER_BOUND('',#53,.T.);
#41=FACE_OUTER_BOUND('',#54,.T.);
#42=FACE_OUTER_BOUND('',#55,.T.);
#43=FACE_OUTER_BOUND('',#57,.T.);
#44=FACE_OUTER_BOUND('',#58,.T.);
#45=FACE_OUTER_BOUND('',#60,.T.);
#46=FACE_OUTER_BOUND('',#61,.T.);
#47=FACE_OUTER_BOUND('',#62,.T.);
#48=FACE_OUTER_BOUND('',#63,.T.);
#49=FACE_OUTER_BOUND('',#65,.T.);
#50=FACE_OUTER_BOUND('',#66,.T.);
#51=FACE_OUTER_BOUND('',#68,.T.);
#52=FACE_OUTER_BOUND('',#69,.T.);
#53=EDGE_LOOP('',(#169,#170,#171,#172,#173,#174,#175));
#54=EDGE_LOOP('',(#176,#177,#178,#179,#180,#181,#182,#183));
#55=EDGE_LOOP('',(#184,#185));
#56=EDGE_LOOP('',(#186,#187));
#57=EDGE_LOOP('',(#188,#189,#190,#191,#192,#193,#194));
#58=EDGE_LOOP('',(#195,#196));
#59=EDGE_LOOP('',(#197,#198));
#60=EDGE_LOOP('',(#199,#200,#201,#202,#203,#204,#205));
#61=EDGE_LOOP('',(#206,#207,#208,#209,#210,#211,#212));
#62=EDGE_LOOP('',(#213,#214,#215,#216,#217,#218));
#63=EDGE_LOOP('',(#219,#220));
#64=EDGE_LOOP('',(#221,#222));
#65=EDGE_LOOP('',(#223,#224,#225,#226,#227,#228));
#66=EDGE_LOOP('',(#229,#230));
#67=EDGE_LOOP('',(#231,#232));
#68=EDGE_LOOP('',(#233,#234,#235,#236,#237,#238));
#69=EDGE_LOOP('',(#239,#240));
#70=EDGE_LOOP('',(#241,#242));
#71=CIRCLE('',#280,1.06);
#72=CIRCLE('',#281,0.06);
#73=CIRCLE('',#282,1.);
#74=CIRCLE('',#283,1.);
#75=CIRCLE('',#284,1.);
#76=CIRCLE('',#285,1.06);
#77=CIRCLE('',#287,1.);
#78=CIRCLE('',#288,1.);
#79=CIRCLE('',#289,1.);
#80=CIRCLE('',#291,1.096);
#81=CIRCLE('',#292,1.096);
#82=CIRCLE('',#294,0.935);
#83=CIRCLE('',#295,0.935);
#84=CIRCLE('',#296,0.005);
#85=CIRCLE('',#297,0.94);
#86=CIRCLE('',#298,0.94);
#87=CIRCLE('',#299,0.935);
#88=CIRCLE('',#301,0.995);
#89=CIRCLE('',#302,0.995);
#90=CIRCLE('',#304,0.935);
#91=CIRCLE('',#305,0.935);
#92=CIRCLE('',#307,0.005);
#93=CIRCLE('',#309,1.0935);
#94=CIRCLE('',#310,1.0935);
#95=CIRCLE('',#311,1.0935);
#96=CIRCLE('',#312,1.0935);
#97=CIRCLE('',#314,1.19);
#98=CIRCLE('',#315,1.19);
#99=CIRCLE('',#317,1.19);
#100=CIRCLE('',#318,1.19);
#101=CIRCLE('',#320,1.096);
#102=CIRCLE('',#321,1.096);
#103=VERTEX_POINT('',#423);
#104=VERTEX_POINT('',#424);
#105=VERTEX_POINT('',#426);
#106=VERTEX_POINT('',#428);
#107=VERTEX_POINT('',#430);
#108=VERTEX_POINT('',#435);
#109=VERTEX_POINT('',#436);
#110=VERTEX_POINT('',#438);
#111=VERTEX_POINT('',#443);
#112=VERTEX_POINT('',#444);
#113=VERTEX_POINT('',#448);
#114=VERTEX_POINT('',#449);
#115=VERTEX_POINT('',#451);
#116=VERTEX_POINT('',#453);
#117=VERTEX_POINT('',#455);
#118=VERTEX_POINT('',#460);
#119=VERTEX_POINT('',#461);
#120=VERTEX_POINT('',#465);
#121=VERTEX_POINT('',#467);
#122=VERTEX_POINT('',#473);
#123=VERTEX_POINT('',#474);
#124=VERTEX_POINT('',#477);
#125=VERTEX_POINT('',#479);
#126=VERTEX_POINT('',#483);
#127=VERTEX_POINT('',#484);
#128=VERTEX_POINT('',#488);
#129=VERTEX_POINT('',#489);
#130=VERTEX_POINT('',#494);
#131=VERTEX_POINT('',#495);
#132=EDGE_CURVE('',#103,#104,#71,.T.);
#133=EDGE_CURVE('',#104,#105,#72,.T.);
#134=EDGE_CURVE('',#105,#106,#73,.T.);
#135=EDGE_CURVE('',#106,#107,#74,.T.);
#136=EDGE_CURVE('',#107,#105,#75,.T.);
#137=EDGE_CURVE('',#104,#103,#76,.T.);
#138=EDGE_CURVE('',#108,#109,#77,.T.);
#139=EDGE_CURVE('',#110,#108,#78,.T.);
#140=EDGE_CURVE('',#110,#107,#25,.T.);
#141=EDGE_CURVE('',#109,#110,#79,.T.);
#142=EDGE_CURVE('',#111,#112,#80,.T.);
#143=EDGE_CURVE('',#112,#111,#81,.T.);
#144=EDGE_CURVE('',#113,#114,#82,.T.);
#145=EDGE_CURVE('',#114,#115,#83,.T.);
#146=EDGE_CURVE('',#115,#116,#84,.T.);
#147=EDGE_CURVE('',#116,#117,#85,.T.);
#148=EDGE_CURVE('',#117,#116,#86,.T.);
#149=EDGE_CURVE('',#115,#113,#87,.T.);
#150=EDGE_CURVE('',#118,#119,#88,.T.);
#151=EDGE_CURVE('',#119,#118,#89,.T.);
#152=EDGE_CURVE('',#114,#120,#26,.T.);
#153=EDGE_CURVE('',#121,#120,#90,.T.);
#154=EDGE_CURVE('',#120,#121,#91,.T.);
#155=EDGE_CURVE('',#119,#109,#92,.T.);
#156=EDGE_CURVE('',#122,#123,#93,.T.);
#157=EDGE_CURVE('',#123,#122,#94,.T.);
#158=EDGE_CURVE('',#123,#124,#27,.T.);
#159=EDGE_CURVE('',#124,#125,#95,.T.);
#160=EDGE_CURVE('',#125,#124,#96,.T.);
#161=EDGE_CURVE('',#126,#127,#97,.T.);
#162=EDGE_CURVE('',#127,#126,#98,.T.);
#163=EDGE_CURVE('',#128,#129,#99,.T.);
#164=EDGE_CURVE('',#129,#128,#100,.T.);
#165=EDGE_CURVE('',#129,#127,#28,.T.);
#166=EDGE_CURVE('',#130,#131,#101,.T.);
#167=EDGE_CURVE('',#131,#130,#102,.T.);
#168=EDGE_CURVE('',#112,#131,#29,.T.);
#169=ORIENTED_EDGE('',*,*,#132,.T.);
#170=ORIENTED_EDGE('',*,*,#133,.T.);
#171=ORIENTED_EDGE('',*,*,#134,.T.);
#172=ORIENTED_EDGE('',*,*,#135,.T.);
#173=ORIENTED_EDGE('',*,*,#136,.T.);
#174=ORIENTED_EDGE('',*,*,#133,.F.);
#175=ORIENTED_EDGE('',*,*,#137,.T.);
#176=ORIENTED_EDGE('',*,*,#138,.F.);
#177=ORIENTED_EDGE('',*,*,#139,.F.);
#178=ORIENTED_EDGE('',*,*,#140,.T.);
#179=ORIENTED_EDGE('',*,*,#135,.F.);
#180=ORIENTED_EDGE('',*,*,#134,.F.);
#181=ORIENTED_EDGE('',*,*,#136,.F.);
#182=ORIENTED_EDGE('',*,*,#140,.F.);
#183=ORIENTED_EDGE('',*,*,#141,.F.);
#184=ORIENTED_EDGE('',*,*,#142,.T.);
#185=ORIENTED_EDGE('',*,*,#143,.T.);
#186=ORIENTED_EDGE('',*,*,#132,.F.);
#187=ORIENTED_EDGE('',*,*,#137,.F.);
#188=ORIENTED_EDGE('',*,*,#144,.T.);
#189=ORIENTED_EDGE('',*,*,#145,.T.);
#190=ORIENTED_EDGE('',*,*,#146,.T.);
#191=ORIENTED_EDGE('',*,*,#147,.T.);
#192=ORIENTED_EDGE('',*,*,#148,.T.);
#193=ORIENTED_EDGE('',*,*,#146,.F.);
#194=ORIENTED_EDGE('',*,*,#149,.T.);
#195=ORIENTED_EDGE('',*,*,#150,.F.);
#196=ORIENTED_EDGE('',*,*,#151,.F.);
#197=ORIENTED_EDGE('',*,*,#148,.F.);
#198=ORIENTED_EDGE('',*,*,#147,.F.);
#199=ORIENTED_EDGE('',*,*,#144,.F.);
#200=ORIENTED_EDGE('',*,*,#149,.F.);
#201=ORIENTED_EDGE('',*,*,#145,.F.);
#202=ORIENTED_EDGE('',*,*,#152,.T.);
#203=ORIENTED_EDGE('',*,*,#153,.F.);
#204=ORIENTED_EDGE('',*,*,#154,.F.);
#205=ORIENTED_EDGE('',*,*,#152,.F.);
#206=ORIENTED_EDGE('',*,*,#150,.T.);
#207=ORIENTED_EDGE('',*,*,#155,.T.);
#208=ORIENTED_EDGE('',*,*,#141,.T.);
#209=ORIENTED_EDGE('',*,*,#139,.T.);
#210=ORIENTED_EDGE('',*,*,#138,.T.);
#211=ORIENTED_EDGE('',*,*,#155,.F.);
#212=ORIENTED_EDGE('',*,*,#151,.T.);
#213=ORIENTED_EDGE('',*,*,#156,.F.);
#214=ORIENTED_EDGE('',*,*,#157,.F.);
#215=ORIENTED_EDGE('',*,*,#158,.T.);
#216=ORIENTED_EDGE('',*,*,#159,.T.);
#217=ORIENTED_EDGE('',*,*,#160,.T.);
#218=ORIENTED_EDGE('',*,*,#158,.F.);
#219=ORIENTED_EDGE('',*,*,#161,.F.);
#220=ORIENTED_EDGE('',*,*,#162,.F.);
#221=ORIENTED_EDGE('',*,*,#156,.T.);
#222=ORIENTED_EDGE('',*,*,#157,.T.);
#223=ORIENTED_EDGE('',*,*,#163,.F.);
#224=ORIENTED_EDGE('',*,*,#164,.F.);
#225=ORIENTED_EDGE('',*,*,#165,.T.);
#226=ORIENTED_EDGE('',*,*,#162,.T.);
#227=ORIENTED_EDGE('',*,*,#161,.T.);
#228=ORIENTED_EDGE('',*,*,#165,.F.);
#229=ORIENTED_EDGE('',*,*,#163,.T.);
#230=ORIENTED_EDGE('',*,*,#164,.T.);
#231=ORIENTED_EDGE('',*,*,#166,.F.);
#232=ORIENTED_EDGE('',*,*,#167,.F.);
#233=ORIENTED_EDGE('',*,*,#142,.F.);
#234=ORIENTED_EDGE('',*,*,#143,.F.);
#235=ORIENTED_EDGE('',*,*,#168,.T.);
#236=ORIENTED_EDGE('',*,*,#167,.T.);
#237=ORIENTED_EDGE('',*,*,#166,.T.);
#238=ORIENTED_EDGE('',*,*,#168,.F.);
#239=ORIENTED_EDGE('',*,*,#160,.F.);
#240=ORIENTED_EDGE('',*,*,#159,.F.);
#241=ORIENTED_EDGE('',*,*,#153,.T.);
#242=ORIENTED_EDGE('',*,*,#154,.T.);
#243=TOROIDAL_SURFACE('',#279,1.06,0.06);
#244=TOROIDAL_SURFACE('',#293,0.94,0.005);
#245=TOROIDAL_SURFACE('',#306,0.995,0.005);
#246=ADVANCED_FACE('',(#40),#243,.F.);
#247=ADVANCED_FACE('',(#41),#35,.T.);
#248=ADVANCED_FACE('',(#42,#15),#20,.T.);
#249=ADVANCED_FACE('',(#43),#244,.T.);
#250=ADVANCED_FACE('',(#44,#16),#21,.T.);
#251=ADVANCED_FACE('',(#45),#36,.F.);
#252=ADVANCED_FACE('',(#46),#245,.T.);
#253=ADVANCED_FACE('',(#47),#37,.T.);
#254=ADVANCED_FACE('',(#48,#17),#22,.T.);
#255=ADVANCED_FACE('',(#49),#38,.T.);
#256=ADVANCED_FACE('',(#50,#18),#23,.T.);
#257=ADVANCED_FACE('',(#51),#39,.T.);
#258=ADVANCED_FACE('',(#52,#19),#24,.T.);
#259=CLOSED_SHELL('',(#246,#247,#248,#249,#250,#251,#252,#253,#254,#255,
#256,#257,#258));
#260=DERIVED_UNIT_ELEMENT(#262,1.);
#261=DERIVED_UNIT_ELEMENT(#508,3.);
#262=(
MASS_UNIT()
NAMED_UNIT(*)
SI_UNIT($,.GRAM.)
);
#263=DERIVED_UNIT((#260,#261));
#264=MEASURE_REPRESENTATION_ITEM('density measure',
POSITIVE_RATIO_MEASURE(1.),#263);
#265=PROPERTY_DEFINITION_REPRESENTATION(#270,#267);
#266=PROPERTY_DEFINITION_REPRESENTATION(#271,#268);
#267=REPRESENTATION('material name',(#269),#503);
#268=REPRESENTATION('density',(#264),#503);
#269=DESCRIPTIVE_REPRESENTATION_ITEM('Generic','Generic');
#270=PROPERTY_DEFINITION('material property','material name',#516);
#271=PROPERTY_DEFINITION('material property','density of part',#516);
#272=DATE_TIME_ROLE('creation_date');
#273=APPLIED_DATE_AND_TIME_ASSIGNMENT(#274,#272,(#516));
#274=DATE_AND_TIME(#275,#276);
#275=CALENDAR_DATE(2007,9,8);
#276=LOCAL_TIME(14,7,11.,#277);
#277=COORDINATED_UNIVERSAL_TIME_OFFSET(0,0,.BEHIND.);
#278=AXIS2_PLACEMENT_3D('placement',#421,#324,#325);
#279=AXIS2_PLACEMENT_3D('',#422,#326,#327);
#280=AXIS2_PLACEMENT_3D('',#425,#328,#329);
#281=AXIS2_PLACEMENT_3D('',#427,#330,#331);
#282=AXIS2_PLACEMENT_3D('',#429,#332,#333);
#283=AXIS2_PLACEMENT_3D('',#431,#334,#335);
#284=AXIS2_PLACEMENT_3D('',#432,#336,#337);
#285=AXIS2_PLACEMENT_3D('',#433,#338,#339);
#286=AXIS2_PLACEMENT_3D('',#434,#340,#341);
#287=AXIS2_PLACEMENT_3D('',#437,#342,#343);
#288=AXIS2_PLACEMENT_3D('',#439,#344,#345);
#289=AXIS2_PLACEMENT_3D('',#441,#347,#348);
#290=AXIS2_PLACEMENT_3D('',#442,#349,#350);
#291=AXIS2_PLACEMENT_3D('',#445,#351,#352);
#292=AXIS2_PLACEMENT_3D('',#446,#353,#354);
#293=AXIS2_PLACEMENT_3D('',#447,#355,#356);
#294=AXIS2_PLACEMENT_3D('',#450,#357,#358);
#295=AXIS2_PLACEMENT_3D('',#452,#359,#360);
#296=AXIS2_PLACEMENT_3D('',#454,#361,#362);
#297=AXIS2_PLACEMENT_3D('',#456,#363,#364);
#298=AXIS2_PLACEMENT_3D('',#457,#365,#366);
#299=AXIS2_PLACEMENT_3D('',#458,#367,#368);
#300=AXIS2_PLACEMENT_3D('',#459,#369,#370);
#301=AXIS2_PLACEMENT_3D('',#462,#371,#372);
#302=AXIS2_PLACEMENT_3D('',#463,#373,#374);
#303=AXIS2_PLACEMENT_3D('',#464,#375,#376);
#304=AXIS2_PLACEMENT_3D('',#468,#378,#379);
#305=AXIS2_PLACEMENT_3D('',#469,#380,#381);
#306=AXIS2_PLACEMENT_3D('',#470,#382,#383);
#307=AXIS2_PLACEMENT_3D('',#471,#384,#385);
#308=AXIS2_PLACEMENT_3D('',#472,#386,#387);
#309=AXIS2_PLACEMENT_3D('',#475,#388,#389);
#310=AXIS2_PLACEMENT_3D('',#476,#390,#391);
#311=AXIS2_PLACEMENT_3D('',#480,#393,#394);
#312=AXIS2_PLACEMENT_3D('',#481,#395,#396);
#313=AXIS2_PLACEMENT_3D('',#482,#397,#398);
#314=AXIS2_PLACEMENT_3D('',#485,#399,#400);
#315=AXIS2_PLACEMENT_3D('',#486,#401,#402);
#316=AXIS2_PLACEMENT_3D('',#487,#403,#404);
#317=AXIS2_PLACEMENT_3D('',#490,#405,#406);
#318=AXIS2_PLACEMENT_3D('',#491,#407,#408);
#319=AXIS2_PLACEMENT_3D('',#493,#410,#411);
#320=AXIS2_PLACEMENT_3D('',#496,#412,#413);
#321=AXIS2_PLACEMENT_3D('',#497,#414,#415);
#322=AXIS2_PLACEMENT_3D('',#498,#416,#417);
#323=AXIS2_PLACEMENT_3D('',#500,#419,#420);
#324=DIRECTION('axis',(0.,0.,1.));
#325=DIRECTION('refdir',(1.,0.,0.));
#326=DIRECTION('center_axis',(1.,-1.13736020337829E-34,0.));
#327=DIRECTION('ref_axis',(0.,0.,-1.));
#328=DIRECTION('center_axis',(1.,-1.13736020337829E-34,0.));
#329=DIRECTION('ref_axis',(-1.13736020337829E-34,-1.,1.22460635382238E-16));
#330=DIRECTION('center_axis',(-1.13736020337829E-34,-1.,-1.22464679914735E-16));
#331=DIRECTION('ref_axis',(0.,-1.22464679914735E-16,1.));
#332=DIRECTION('center_axis',(-1.,1.13736020337829E-34,0.));
#333=DIRECTION('ref_axis',(0.,-1.,1.22460635382238E-16));
#334=DIRECTION('center_axis',(-1.,1.13736020337829E-34,0.));
#335=DIRECTION('ref_axis',(0.,-1.,1.22460635382238E-16));
#336=DIRECTION('center_axis',(-1.,1.13736020337829E-34,0.));
#337=DIRECTION('ref_axis',(0.,-1.,1.22460635382238E-16));
#338=DIRECTION('center_axis',(1.,-1.13736020337829E-34,0.));
#339=DIRECTION('ref_axis',(-1.13736020337829E-34,-1.,1.22460635382238E-16));
#340=DIRECTION('center_axis',(1.,-1.13736020337829E-34,0.));
#341=DIRECTION('ref_axis',(0.,1.,0.));
#342=DIRECTION('center_axis',(1.,-1.13736020337829E-34,0.));
#343=DIRECTION('ref_axis',(0.,-1.,1.22460635382238E-16));
#344=DIRECTION('center_axis',(1.,-1.13736020337829E-34,0.));
#345=DIRECTION('ref_axis',(0.,-1.,1.22460635382238E-16));
#346=DIRECTION('',(-1.,1.13736020337829E-34,0.));
#347=DIRECTION('center_axis',(1.,-1.13736020337829E-34,0.));
#348=DIRECTION('ref_axis',(0.,-1.,1.22460635382238E-16));
#349=DIRECTION('center_axis',(1.,-1.13736020337829E-34,0.));
#350=DIRECTION('ref_axis',(0.,0.,-1.));
#351=DIRECTION('center_axis',(1.,-1.13736020337829E-34,0.));
#352=DIRECTION('ref_axis',(0.,1.,0.));
#353=DIRECTION('center_axis',(1.,-1.13736020337829E-34,0.));
#354=DIRECTION('ref_axis',(0.,1.,0.));
#355=DIRECTION('center_axis',(1.,-1.13736020337829E-34,0.));
#356=DIRECTION('ref_axis',(0.,0.,-1.));
#357=DIRECTION('center_axis',(-1.,1.13736020337829E-34,0.));
#358=DIRECTION('ref_axis',(0.,-1.,1.22460635382238E-16));
#359=DIRECTION('center_axis',(-1.,1.13736020337829E-34,0.));
#360=DIRECTION('ref_axis',(0.,-1.,1.22460635382238E-16));
#361=DIRECTION('center_axis',(-1.13736020337829E-34,-1.,-1.22464679914735E-16));
#362=DIRECTION('ref_axis',(0.,-1.22464679914735E-16,1.));
#363=DIRECTION('center_axis',(1.,-1.13736020337829E-34,0.));
#364=DIRECTION('ref_axis',(-1.13736020337829E-34,-1.,1.22460635382238E-16));
#365=DIRECTION('center_axis',(1.,-1.13736020337829E-34,0.));
#366=DIRECTION('ref_axis',(-1.13736020337829E-34,-1.,1.22460635382238E-16));
#367=DIRECTION('center_axis',(-1.,1.13736020337829E-34,0.));
#368=DIRECTION('ref_axis',(0.,-1.,1.22460635382238E-16));
#369=DIRECTION('center_axis',(1.,-1.13736020337829E-34,0.));
#370=DIRECTION('ref_axis',(0.,0.,-1.));
#371=DIRECTION('center_axis',(-1.,1.13736020337829E-34,0.));
#372=DIRECTION('ref_axis',(-1.13736020337829E-34,-1.,1.22460635382238E-16));
#373=DIRECTION('center_axis',(-1.,1.13736020337829E-34,0.));
#374=DIRECTION('ref_axis',(-1.13736020337829E-34,-1.,1.22460635382238E-16));
#375=DIRECTION('center_axis',(1.,-1.13736020337829E-34,0.));
#376=DIRECTION('ref_axis',(0.,1.,0.));
#377=DIRECTION('',(-1.,1.13736020337829E-34,0.));
#378=DIRECTION('center_axis',(1.,-1.13736020337829E-34,0.));
#379=DIRECTION('ref_axis',(0.,1.,0.));
#380=DIRECTION('center_axis',(1.,-1.13736020337829E-34,0.));
#381=DIRECTION('ref_axis',(0.,1.,0.));
#382=DIRECTION('center_axis',(1.,-1.13736020337829E-34,0.));
#383=DIRECTION('ref_axis',(0.,0.,-1.));
#384=DIRECTION('center_axis',(-1.13736020337829E-34,-1.,-1.22464679914735E-16));
#385=DIRECTION('ref_axis',(0.,-1.22464679914735E-16,1.));
#386=DIRECTION('center_axis',(1.,-1.13736020337829E-34,0.));
#387=DIRECTION('ref_axis',(0.,1.,0.));
#388=DIRECTION('center_axis',(1.,-1.13736020337829E-34,0.));
#389=DIRECTION('ref_axis',(0.,1.,0.));
#390=DIRECTION('center_axis',(1.,-1.13736020337829E-34,0.));
#391=DIRECTION('ref_axis',(0.,1.,0.));
#392=DIRECTION('',(-1.,1.13736020337829E-34,0.));
#393=DIRECTION('center_axis',(1.,-1.13736020337829E-34,0.));
#394=DIRECTION('ref_axis',(0.,1.,0.));
#395=DIRECTION('center_axis',(1.,-1.13736020337829E-34,0.));
#396=DIRECTION('ref_axis',(0.,1.,0.));
#397=DIRECTION('center_axis',(-1.,1.13736020337829E-34,0.));
#398=DIRECTION('ref_axis',(0.,0.,1.));
#399=DIRECTION('center_axis',(1.,-1.13736020337829E-34,0.));
#400=DIRECTION('ref_axis',(0.,1.,0.));
#401=DIRECTION('center_axis',(1.,-1.13736020337829E-34,0.));
#402=DIRECTION('ref_axis',(0.,1.,0.));
#403=DIRECTION('center_axis',(1.,-1.13736020337829E-34,0.));
#404=DIRECTION('ref_axis',(0.,1.,0.));
#405=DIRECTION('center_axis',(1.,-1.13736020337829E-34,0.));
#406=DIRECTION('ref_axis',(0.,1.,0.));
#407=DIRECTION('center_axis',(1.,-1.13736020337829E-34,0.));
#408=DIRECTION('ref_axis',(0.,1.,0.));
#409=DIRECTION('',(-1.,1.13736020337829E-34,0.));
#410=DIRECTION('center_axis',(1.,-1.13736020337829E-34,0.));
#411=DIRECTION('ref_axis',(0.,0.,-1.));
#412=DIRECTION('center_axis',(1.,-1.13736020337829E-34,0.));
#413=DIRECTION('ref_axis',(0.,1.,0.));
#414=DIRECTION('center_axis',(1.,-1.13736020337829E-34,0.));
#415=DIRECTION('ref_axis',(0.,1.,0.));
#416=DIRECTION('center_axis',(1.,-1.13736020337829E-34,0.));
#417=DIRECTION('ref_axis',(0.,1.,0.));
#418=DIRECTION('',(-1.,1.13736020337829E-34,0.));
#419=DIRECTION('center_axis',(-1.,1.13736020337829E-34,0.));
#420=DIRECTION('ref_axis',(0.,0.,1.));
#421=CARTESIAN_POINT('',(0.,0.,0.));
#422=CARTESIAN_POINT('Origin',(0.591,-6.72179880196569E-35,0.));
#423=CARTESIAN_POINT('',(0.531,1.06,0.));
#424=CARTESIAN_POINT('',(0.531,-1.29812560709619E-16,1.06));
#425=CARTESIAN_POINT('Origin',(0.531,-6.03938267993871E-35,0.));
#426=CARTESIAN_POINT('',(0.591,-1.22464679914735E-16,1.));
#427=CARTESIAN_POINT('Origin',(0.591,-1.29812560709619E-16,1.06));
#428=CARTESIAN_POINT('',(0.591,1.,-2.44921270764475E-16));
#429=CARTESIAN_POINT('Origin',(0.591,-6.72179880196569E-35,0.));
#430=CARTESIAN_POINT('',(0.591,-1.,-1.22464679914735E-16));
#431=CARTESIAN_POINT('Origin',(0.591,-6.72179880196569E-35,0.));
#432=CARTESIAN_POINT('Origin',(0.591,-6.72179880196569E-35,0.));
#433=CARTESIAN_POINT('Origin',(0.531,-6.03938267993871E-35,0.));
#434=CARTESIAN_POINT('Origin',(1.0155,-1.15498928653065E-34,0.));
#435=CARTESIAN_POINT('',(1.495,1.,0.));
#436=CARTESIAN_POINT('',(1.495,-1.22464679914735E-16,1.));
#437=CARTESIAN_POINT('Origin',(1.495,-1.70035350405054E-34,0.));
#438=CARTESIAN_POINT('',(1.495,-1.,-1.22464679914735E-16));
#439=CARTESIAN_POINT('Origin',(1.495,-1.70035350405054E-34,0.));
#440=CARTESIAN_POINT('',(1.0155,-1.,-1.22464679914735E-16));
#441=CARTESIAN_POINT('Origin',(1.495,-1.70035350405054E-34,0.));
#442=CARTESIAN_POINT('Origin',(0.531,1.048,0.));
#443=CARTESIAN_POINT('',(0.531,1.096,0.));
#444=CARTESIAN_POINT('',(0.531,-1.096,-1.3422128918655E-16));
#445=CARTESIAN_POINT('Origin',(0.531,-6.03938267993871E-35,0.));
#446=CARTESIAN_POINT('Origin',(0.531,-6.03938267993871E-35,0.));
#447=CARTESIAN_POINT('Origin',(1.495,-1.70035350405054E-34,0.));
#448=CARTESIAN_POINT('',(1.495,0.935,-2.29001388164785E-16));
#449=CARTESIAN_POINT('',(1.495,-0.935,-1.14504475720278E-16));
#450=CARTESIAN_POINT('Origin',(1.495,-1.70035350405054E-34,0.));
#451=CARTESIAN_POINT('',(1.495,-1.14504475720278E-16,0.935));
#452=CARTESIAN_POINT('Origin',(1.495,-1.70035350405054E-34,0.));
#453=CARTESIAN_POINT('',(1.5,-1.15116799119851E-16,0.94));
#454=CARTESIAN_POINT('Origin',(1.495,-1.15116799119851E-16,0.94));
#455=CARTESIAN_POINT('',(1.5,0.94,0.));
#456=CARTESIAN_POINT('Origin',(1.5,-1.70604030506743E-34,0.));
#457=CARTESIAN_POINT('Origin',(1.5,-1.70604030506743E-34,0.));
#458=CARTESIAN_POINT('Origin',(1.495,-1.70035350405054E-34,0.));
#459=CARTESIAN_POINT('Origin',(1.5,0.9675,0.));
#460=CARTESIAN_POINT('',(1.5,0.995,-2.43696664410653E-16));
#461=CARTESIAN_POINT('',(1.5,-1.21852356515162E-16,0.995));
#462=CARTESIAN_POINT('Origin',(1.5,-1.70604030506743E-34,0.));
#463=CARTESIAN_POINT('Origin',(1.5,-1.70604030506743E-34,0.));
#464=CARTESIAN_POINT('Origin',(0.75,-8.53020152533716E-35,0.));
#465=CARTESIAN_POINT('',(-2.62257407391769E-16,-0.935,-1.14504475720278E-16));
#466=CARTESIAN_POINT('',(0.75,-0.935,-1.14504475720278E-16));
#467=CARTESIAN_POINT('',(-1.74838271594513E-16,0.935,0.));
#468=CARTESIAN_POINT('Origin',(-1.74838271594513E-16,1.98854092139044E-50,
0.));
#469=CARTESIAN_POINT('Origin',(-1.74838271594513E-16,1.98854092139044E-50,
0.));
#470=CARTESIAN_POINT('Origin',(1.495,-1.70035350405054E-34,0.));
#471=CARTESIAN_POINT('Origin',(1.495,-1.21852356515162E-16,0.995));
#472=CARTESIAN_POINT('Origin',(0.1095,-1.24540942269922E-35,0.));
#473=CARTESIAN_POINT('',(0.219,1.0935,0.));
#474=CARTESIAN_POINT('',(0.219,-1.0935,-1.33915127486763E-16));
#475=CARTESIAN_POINT('Origin',(0.219,-2.49081884539845E-35,0.));
#476=CARTESIAN_POINT('Origin',(0.219,-2.49081884539845E-35,0.));
#477=CARTESIAN_POINT('',(-2.18547839493141E-16,-1.0935,-1.33915127486763E-16));
#478=CARTESIAN_POINT('',(0.1095,-1.0935,-1.33915127486763E-16));
#479=CARTESIAN_POINT('',(-2.18547839493141E-16,1.0935,0.));
#480=CARTESIAN_POINT('Origin',(-2.18547839493141E-16,2.48567615173804E-50,
0.));
#481=CARTESIAN_POINT('Origin',(-2.18547839493141E-16,2.48567615173804E-50,
0.));
#482=CARTESIAN_POINT('Origin',(0.219,1.14175,0.));
#483=CARTESIAN_POINT('',(0.219,1.19,0.));
#484=CARTESIAN_POINT('',(0.219,-1.19,-1.45732969098535E-16));
#485=CARTESIAN_POINT('Origin',(0.219,-2.49081884539845E-35,0.));
#486=CARTESIAN_POINT('Origin',(0.219,-2.49081884539845E-35,0.));
#487=CARTESIAN_POINT('Origin',(0.2655,-3.01969133996936E-35,0.));
#488=CARTESIAN_POINT('',(0.312,1.19,0.));
#489=CARTESIAN_POINT('',(0.312,-1.19,-1.45732969098535E-16));
#490=CARTESIAN_POINT('Origin',(0.312,-3.54856383454026E-35,0.));
#491=CARTESIAN_POINT('Origin',(0.312,-3.54856383454026E-35,0.));
#492=CARTESIAN_POINT('',(0.2655,-1.19,-1.45732969098535E-16));
#493=CARTESIAN_POINT('Origin',(0.312,1.143,0.));
#494=CARTESIAN_POINT('',(0.312,1.096,0.));
#495=CARTESIAN_POINT('',(0.312,-1.096,-1.3422128918655E-16));
#496=CARTESIAN_POINT('Origin',(0.312,-3.54856383454026E-35,0.));
#497=CARTESIAN_POINT('Origin',(0.312,-3.54856383454026E-35,0.));
#498=CARTESIAN_POINT('Origin',(0.4215,-4.79397325723949E-35,0.));
#499=CARTESIAN_POINT('',(0.4215,-1.096,-1.3422128918655E-16));
#500=CARTESIAN_POINT('Origin',(-1.96693055543827E-16,1.01425,0.));
#501=UNCERTAINTY_MEASURE_WITH_UNIT(LENGTH_MEASURE(0.000393700787401575),
#506,'DISTANCE_ACCURACY_VALUE',
'Maximum model space distance between geometric entities at asserted c
onnectivities');
#502=UNCERTAINTY_MEASURE_WITH_UNIT(LENGTH_MEASURE(0.000393700787401575),
#506,'DISTANCE_ACCURACY_VALUE',
'Maximum model space distance between geometric entities at asserted c
onnectivities');
#503=(
GEOMETRIC_REPRESENTATION_CONTEXT(3)
GLOBAL_UNCERTAINTY_ASSIGNED_CONTEXT((#501))
GLOBAL_UNIT_ASSIGNED_CONTEXT((#506,#510,#511))
REPRESENTATION_CONTEXT('','3D')
);
#504=(
GEOMETRIC_REPRESENTATION_CONTEXT(3)
GLOBAL_UNCERTAINTY_ASSIGNED_CONTEXT((#502))
GLOBAL_UNIT_ASSIGNED_CONTEXT((#506,#510,#511))
REPRESENTATION_CONTEXT('','3D')
);
#505=DIMENSIONAL_EXPONENTS(1.,0.,0.,0.,0.,0.,0.);
#506=(
CONVERSION_BASED_UNIT('inch',#509)
LENGTH_UNIT()
NAMED_UNIT(#505)
);
#507=(
LENGTH_UNIT()
NAMED_UNIT(*)
SI_UNIT(.MILLI.,.METRE.)
);
#508=(
LENGTH_UNIT()
NAMED_UNIT(*)
SI_UNIT(.CENTI.,.METRE.)
);
#509=LENGTH_MEASURE_WITH_UNIT(LENGTH_MEASURE(25.4),#507);
#510=(
NAMED_UNIT(*)
PLANE_ANGLE_UNIT()
SI_UNIT($,.RADIAN.)
);
#511=(
NAMED_UNIT(*)
SI_UNIT($,.STERADIAN.)
SOLID_ANGLE_UNIT()
);
#512=SHAPE_DEFINITION_REPRESENTATION(#513,#514);
#513=PRODUCT_DEFINITION_SHAPE('',$,#516);
#514=SHAPE_REPRESENTATION('',(#278),#503);
#515=PRODUCT_DEFINITION_CONTEXT('part definition',#520,'design');
#516=PRODUCT_DEFINITION('L14AJP-2','L14AJP-2',#517,#515);
#517=PRODUCT_DEFINITION_FORMATION('',$,#522);
#518=PRODUCT_RELATED_PRODUCT_CATEGORY('L14AJP-2','L14AJP-2',(#522));
#519=APPLICATION_PROTOCOL_DEFINITION('international standard',
'automotive_design',2009,#520);
#520=APPLICATION_CONTEXT(
'Core Data for Automotive Mechanical Design Process');
#521=PRODUCT_CONTEXT('part definition',#520,'mechanical');
#522=PRODUCT('L14AJP-2','L14AJP-2',$,(#521));
#523=PRESENTATION_STYLE_ASSIGNMENT((#524));
#524=SURFACE_STYLE_USAGE(.BOTH.,#527);
#525=SURFACE_STYLE_RENDERING_WITH_PROPERTIES($,#531,(#526));
#526=SURFACE_STYLE_TRANSPARENT(0.);
#527=SURFACE_SIDE_STYLE('',(#528,#525));
#528=SURFACE_STYLE_FILL_AREA(#529);
#529=FILL_AREA_STYLE('',(#530));
#530=FILL_AREA_STYLE_COLOUR('',#531);
#531=COLOUR_RGB('',0.749019607843137,0.749019607843137,0.749019607843137);
ENDSEC;
END-ISO-10303-21;
