ISO-10303-21;
HEADER;
/* Generated by software containing ST-Developer
 * from STEP Tools, Inc. (www.steptools.com) 
 */

FILE_DESCRIPTION(
/* description */ (''),
/* implementation_level */ '2;1');

FILE_NAME(
/* name */ 'L14AJP-4.stp',
/* time_stamp */ '2024-03-26T13:37:32-04:00',
/* author */ ('brad'),
/* organization */ (''),
/* preprocessor_version */ 'ST-DEVELOPER v20',
/* originating_system */ 'Autodesk Inventor 2024',
/* authorisation */ '');

FILE_SCHEMA (('AUTOMOTIVE_DESIGN { 1 0 10303 214 3 1 1 }'));
ENDSEC;

DATA;
#10=MECHANICAL_DESIGN_GEOMETRIC_PRESENTATION_REPRESENTATION('',(#13),#376);
#11=SHAPE_REPRESENTATION_RELATIONSHIP('SRR','None',#387,#12);
#12=ADVANCED_BREP_SHAPE_REPRESENTATION('',(#14),#375);
#13=STYLED_ITEM('',(#396),#14);
#14=MANIFOLD_SOLID_BREP('Solid1',#194);
#15=FACE_BOUND('',#56,.T.);
#16=FACE_BOUND('',#59,.T.);
#17=FACE_BOUND('',#64,.T.);
#18=FACE_BOUND('',#67,.T.);
#19=FACE_BOUND('',#70,.T.);
#20=PLANE('',#224);
#21=PLANE('',#231);
#22=PLANE('',#240);
#23=PLANE('',#244);
#24=PLANE('',#247);
#25=LINE('',#332,#30);
#26=LINE('',#350,#31);
#27=LINE('',#358,#32);
#28=LINE('',#366,#33);
#29=LINE('',#371,#34);
#30=VECTOR('',#264,2.);
#31=VECTOR('',#287,1.917);
#32=VECTOR('',#298,2.0935);
#33=VECTOR('',#309,2.254);
#34=VECTOR('',#316,2.128);
#35=CYLINDRICAL_SURFACE('',#221,2.);
#36=CYLINDRICAL_SURFACE('',#233,1.917);
#37=CYLINDRICAL_SURFACE('',#237,2.0935);
#38=CYLINDRICAL_SURFACE('',#242,2.254);
#39=CYLINDRICAL_SURFACE('',#246,2.128);
#40=FACE_OUTER_BOUND('',#53,.T.);
#41=FACE_OUTER_BOUND('',#54,.T.);
#42=FACE_OUTER_BOUND('',#55,.T.);
#43=FACE_OUTER_BOUND('',#57,.T.);
#44=FACE_OUTER_BOUND('',#58,.T.);
#45=FACE_OUTER_BOUND('',#60,.T.);
#46=FACE_OUTER_BOUND('',#61,.T.);
#47=FACE_OUTER_BOUND('',#62,.T.);
#48=FACE_OUTER_BOUND('',#63,.T.);
#49=FACE_OUTER_BOUND('',#65,.T.);
#50=FACE_OUTER_BOUND('',#66,.T.);
#51=FACE_OUTER_BOUND('',#68,.T.);
#52=FACE_OUTER_BOUND('',#69,.T.);
#53=EDGE_LOOP('',(#130,#131,#132,#133,#134));
#54=EDGE_LOOP('',(#135,#136,#137,#138,#139,#140));
#55=EDGE_LOOP('',(#141));
#56=EDGE_LOOP('',(#142));
#57=EDGE_LOOP('',(#143,#144,#145,#146,#147));
#58=EDGE_LOOP('',(#148));
#59=EDGE_LOOP('',(#149));
#60=EDGE_LOOP('',(#150,#151,#152,#153,#154));
#61=EDGE_LOOP('',(#155,#156,#157,#158,#159));
#62=EDGE_LOOP('',(#160,#161,#162,#163));
#63=EDGE_LOOP('',(#164));
#64=EDGE_LOOP('',(#165));
#65=EDGE_LOOP('',(#166,#167,#168,#169));
#66=EDGE_LOOP('',(#170));
#67=EDGE_LOOP('',(#171));
#68=EDGE_LOOP('',(#172,#173,#174,#175));
#69=EDGE_LOOP('',(#176));
#70=EDGE_LOOP('',(#177));
#71=CIRCLE('',#217,2.06);
#72=CIRCLE('',#218,0.06);
#73=CIRCLE('',#219,2.);
#74=CIRCLE('',#220,2.);
#75=CIRCLE('',#222,2.);
#76=CIRCLE('',#223,2.);
#77=CIRCLE('',#225,2.128);
#78=CIRCLE('',#227,1.917);
#79=CIRCLE('',#228,1.917);
#80=CIRCLE('',#229,0.005);
#81=CIRCLE('',#230,1.922);
#82=CIRCLE('',#232,1.995);
#83=CIRCLE('',#234,1.917);
#84=CIRCLE('',#236,0.005);
#85=CIRCLE('',#238,2.0935);
#86=CIRCLE('',#239,2.0935);
#87=CIRCLE('',#241,2.254);
#88=CIRCLE('',#243,2.254);
#89=CIRCLE('',#245,2.128);
#90=VERTEX_POINT('',#321);
#91=VERTEX_POINT('',#323);
#92=VERTEX_POINT('',#325);
#93=VERTEX_POINT('',#329);
#94=VERTEX_POINT('',#330);
#95=VERTEX_POINT('',#335);
#96=VERTEX_POINT('',#338);
#97=VERTEX_POINT('',#339);
#98=VERTEX_POINT('',#342);
#99=VERTEX_POINT('',#346);
#100=VERTEX_POINT('',#349);
#101=VERTEX_POINT('',#355);
#102=VERTEX_POINT('',#357);
#103=VERTEX_POINT('',#361);
#104=VERTEX_POINT('',#364);
#105=VERTEX_POINT('',#368);
#106=EDGE_CURVE('',#90,#90,#71,.T.);
#107=EDGE_CURVE('',#90,#91,#72,.T.);
#108=EDGE_CURVE('',#91,#92,#73,.T.);
#109=EDGE_CURVE('',#92,#91,#74,.T.);
#110=EDGE_CURVE('',#93,#94,#75,.T.);
#111=EDGE_CURVE('',#93,#92,#25,.T.);
#112=EDGE_CURVE('',#94,#93,#76,.T.);
#113=EDGE_CURVE('',#95,#95,#77,.T.);
#114=EDGE_CURVE('',#96,#97,#78,.T.);
#115=EDGE_CURVE('',#97,#96,#79,.T.);
#116=EDGE_CURVE('',#96,#98,#80,.T.);
#117=EDGE_CURVE('',#98,#98,#81,.T.);
#118=EDGE_CURVE('',#99,#99,#82,.T.);
#119=EDGE_CURVE('',#97,#100,#26,.T.);
#120=EDGE_CURVE('',#100,#100,#83,.T.);
#121=EDGE_CURVE('',#99,#94,#84,.T.);
#122=EDGE_CURVE('',#101,#101,#85,.T.);
#123=EDGE_CURVE('',#101,#102,#27,.T.);
#124=EDGE_CURVE('',#102,#102,#86,.T.);
#125=EDGE_CURVE('',#103,#103,#87,.T.);
#126=EDGE_CURVE('',#104,#104,#88,.T.);
#127=EDGE_CURVE('',#104,#103,#28,.T.);
#128=EDGE_CURVE('',#105,#105,#89,.T.);
#129=EDGE_CURVE('',#95,#105,#29,.T.);
#130=ORIENTED_EDGE('',*,*,#106,.T.);
#131=ORIENTED_EDGE('',*,*,#107,.T.);
#132=ORIENTED_EDGE('',*,*,#108,.T.);
#133=ORIENTED_EDGE('',*,*,#109,.T.);
#134=ORIENTED_EDGE('',*,*,#107,.F.);
#135=ORIENTED_EDGE('',*,*,#110,.F.);
#136=ORIENTED_EDGE('',*,*,#111,.T.);
#137=ORIENTED_EDGE('',*,*,#108,.F.);
#138=ORIENTED_EDGE('',*,*,#109,.F.);
#139=ORIENTED_EDGE('',*,*,#111,.F.);
#140=ORIENTED_EDGE('',*,*,#112,.F.);
#141=ORIENTED_EDGE('',*,*,#113,.T.);
#142=ORIENTED_EDGE('',*,*,#106,.F.);
#143=ORIENTED_EDGE('',*,*,#114,.T.);
#144=ORIENTED_EDGE('',*,*,#115,.T.);
#145=ORIENTED_EDGE('',*,*,#116,.T.);
#146=ORIENTED_EDGE('',*,*,#117,.T.);
#147=ORIENTED_EDGE('',*,*,#116,.F.);
#148=ORIENTED_EDGE('',*,*,#118,.F.);
#149=ORIENTED_EDGE('',*,*,#117,.F.);
#150=ORIENTED_EDGE('',*,*,#114,.F.);
#151=ORIENTED_EDGE('',*,*,#115,.F.);
#152=ORIENTED_EDGE('',*,*,#119,.T.);
#153=ORIENTED_EDGE('',*,*,#120,.F.);
#154=ORIENTED_EDGE('',*,*,#119,.F.);
#155=ORIENTED_EDGE('',*,*,#118,.T.);
#156=ORIENTED_EDGE('',*,*,#121,.T.);
#157=ORIENTED_EDGE('',*,*,#112,.T.);
#158=ORIENTED_EDGE('',*,*,#110,.T.);
#159=ORIENTED_EDGE('',*,*,#121,.F.);
#160=ORIENTED_EDGE('',*,*,#122,.F.);
#161=ORIENTED_EDGE('',*,*,#123,.T.);
#162=ORIENTED_EDGE('',*,*,#124,.T.);
#163=ORIENTED_EDGE('',*,*,#123,.F.);
#164=ORIENTED_EDGE('',*,*,#125,.F.);
#165=ORIENTED_EDGE('',*,*,#122,.T.);
#166=ORIENTED_EDGE('',*,*,#126,.F.);
#167=ORIENTED_EDGE('',*,*,#127,.T.);
#168=ORIENTED_EDGE('',*,*,#125,.T.);
#169=ORIENTED_EDGE('',*,*,#127,.F.);
#170=ORIENTED_EDGE('',*,*,#126,.T.);
#171=ORIENTED_EDGE('',*,*,#128,.F.);
#172=ORIENTED_EDGE('',*,*,#113,.F.);
#173=ORIENTED_EDGE('',*,*,#129,.T.);
#174=ORIENTED_EDGE('',*,*,#128,.T.);
#175=ORIENTED_EDGE('',*,*,#129,.F.);
#176=ORIENTED_EDGE('',*,*,#124,.F.);
#177=ORIENTED_EDGE('',*,*,#120,.T.);
#178=TOROIDAL_SURFACE('',#216,2.06,0.06);
#179=TOROIDAL_SURFACE('',#226,1.922,0.005);
#180=TOROIDAL_SURFACE('',#235,1.995,0.005);
#181=ADVANCED_FACE('',(#40),#178,.F.);
#182=ADVANCED_FACE('',(#41),#35,.T.);
#183=ADVANCED_FACE('',(#42,#15),#20,.T.);
#184=ADVANCED_FACE('',(#43),#179,.T.);
#185=ADVANCED_FACE('',(#44,#16),#21,.T.);
#186=ADVANCED_FACE('',(#45),#36,.F.);
#187=ADVANCED_FACE('',(#46),#180,.T.);
#188=ADVANCED_FACE('',(#47),#37,.T.);
#189=ADVANCED_FACE('',(#48,#17),#22,.T.);
#190=ADVANCED_FACE('',(#49),#38,.T.);
#191=ADVANCED_FACE('',(#50,#18),#23,.T.);
#192=ADVANCED_FACE('',(#51),#39,.T.);
#193=ADVANCED_FACE('',(#52,#19),#24,.T.);
#194=CLOSED_SHELL('',(#181,#182,#183,#184,#185,#186,#187,#188,#189,#190,
#191,#192,#193));
#195=DERIVED_UNIT_ELEMENT(#197,1.);
#196=DERIVED_UNIT_ELEMENT(#381,-3.);
#197=(
CONVERSION_BASED_UNIT('gram',#199)
MASS_UNIT()
NAMED_UNIT(#378)
);
#198=(
MASS_UNIT()
NAMED_UNIT(*)
SI_UNIT(.KILO.,.GRAM.)
);
#199=MASS_MEASURE_WITH_UNIT(MASS_MEASURE(0.001),#198);
#200=DERIVED_UNIT((#195,#196));
#201=MEASURE_REPRESENTATION_ITEM('density measure',
POSITIVE_RATIO_MEASURE(1.),#200);
#202=PROPERTY_DEFINITION_REPRESENTATION(#207,#204);
#203=PROPERTY_DEFINITION_REPRESENTATION(#208,#205);
#204=REPRESENTATION('material name',(#206),#375);
#205=REPRESENTATION('density',(#201),#375);
#206=DESCRIPTIVE_REPRESENTATION_ITEM('Default','Default');
#207=PROPERTY_DEFINITION('material property','material name',#389);
#208=PROPERTY_DEFINITION('material property','density of part',#389);
#209=DATE_TIME_ROLE('creation_date');
#210=APPLIED_DATE_AND_TIME_ASSIGNMENT(#211,#209,(#389));
#211=DATE_AND_TIME(#212,#213);
#212=CALENDAR_DATE(2007,9,8);
#213=LOCAL_TIME(0,0,0.,#214);
#214=COORDINATED_UNIVERSAL_TIME_OFFSET(0,0,.BEHIND.);
#215=AXIS2_PLACEMENT_3D('',#319,#248,#249);
#216=AXIS2_PLACEMENT_3D('',#320,#250,#251);
#217=AXIS2_PLACEMENT_3D('',#322,#252,#253);
#218=AXIS2_PLACEMENT_3D('',#324,#254,#255);
#219=AXIS2_PLACEMENT_3D('',#326,#256,#257);
#220=AXIS2_PLACEMENT_3D('',#327,#258,#259);
#221=AXIS2_PLACEMENT_3D('',#328,#260,#261);
#222=AXIS2_PLACEMENT_3D('',#331,#262,#263);
#223=AXIS2_PLACEMENT_3D('',#333,#265,#266);
#224=AXIS2_PLACEMENT_3D('',#334,#267,#268);
#225=AXIS2_PLACEMENT_3D('',#336,#269,#270);
#226=AXIS2_PLACEMENT_3D('',#337,#271,#272);
#227=AXIS2_PLACEMENT_3D('',#340,#273,#274);
#228=AXIS2_PLACEMENT_3D('',#341,#275,#276);
#229=AXIS2_PLACEMENT_3D('',#343,#277,#278);
#230=AXIS2_PLACEMENT_3D('',#344,#279,#280);
#231=AXIS2_PLACEMENT_3D('',#345,#281,#282);
#232=AXIS2_PLACEMENT_3D('',#347,#283,#284);
#233=AXIS2_PLACEMENT_3D('',#348,#285,#286);
#234=AXIS2_PLACEMENT_3D('',#351,#288,#289);
#235=AXIS2_PLACEMENT_3D('',#352,#290,#291);
#236=AXIS2_PLACEMENT_3D('',#353,#292,#293);
#237=AXIS2_PLACEMENT_3D('',#354,#294,#295);
#238=AXIS2_PLACEMENT_3D('',#356,#296,#297);
#239=AXIS2_PLACEMENT_3D('',#359,#299,#300);
#240=AXIS2_PLACEMENT_3D('',#360,#301,#302);
#241=AXIS2_PLACEMENT_3D('',#362,#303,#304);
#242=AXIS2_PLACEMENT_3D('',#363,#305,#306);
#243=AXIS2_PLACEMENT_3D('',#365,#307,#308);
#244=AXIS2_PLACEMENT_3D('',#367,#310,#311);
#245=AXIS2_PLACEMENT_3D('',#369,#312,#313);
#246=AXIS2_PLACEMENT_3D('',#370,#314,#315);
#247=AXIS2_PLACEMENT_3D('',#372,#317,#318);
#248=DIRECTION('axis',(0.,0.,1.));
#249=DIRECTION('refdir',(1.,0.,0.));
#250=DIRECTION('center_axis',(1.,0.,0.));
#251=DIRECTION('ref_axis',(0.,0.,-1.));
#252=DIRECTION('center_axis',(1.,0.,0.));
#253=DIRECTION('ref_axis',(0.,-1.,1.22460635382238E-16));
#254=DIRECTION('center_axis',(0.,-1.,-1.22464679914735E-16));
#255=DIRECTION('ref_axis',(0.,-1.22464679914735E-16,1.));
#256=DIRECTION('center_axis',(-1.,0.,0.));
#257=DIRECTION('ref_axis',(0.,-1.,1.22460635382238E-16));
#258=DIRECTION('center_axis',(-1.,0.,0.));
#259=DIRECTION('ref_axis',(0.,-1.,1.22460635382238E-16));
#260=DIRECTION('center_axis',(1.,0.,0.));
#261=DIRECTION('ref_axis',(0.,1.,0.));
#262=DIRECTION('center_axis',(1.,0.,0.));
#263=DIRECTION('ref_axis',(0.,-1.,1.22460635382238E-16));
#264=DIRECTION('',(-1.,0.,0.));
#265=DIRECTION('center_axis',(1.,0.,0.));
#266=DIRECTION('ref_axis',(0.,-1.,1.22460635382238E-16));
#267=DIRECTION('center_axis',(1.,0.,0.));
#268=DIRECTION('ref_axis',(0.,0.,-1.));
#269=DIRECTION('center_axis',(1.,0.,0.));
#270=DIRECTION('ref_axis',(0.,1.,0.));
#271=DIRECTION('center_axis',(1.,0.,0.));
#272=DIRECTION('ref_axis',(0.,0.,-1.));
#273=DIRECTION('center_axis',(-1.,0.,0.));
#274=DIRECTION('ref_axis',(0.,-1.,1.22460635382238E-16));
#275=DIRECTION('center_axis',(-1.,0.,0.));
#276=DIRECTION('ref_axis',(0.,-1.,1.22460635382238E-16));
#277=DIRECTION('center_axis',(0.,-1.,-1.22464679914735E-16));
#278=DIRECTION('ref_axis',(0.,-1.22464679914735E-16,1.));
#279=DIRECTION('center_axis',(1.,0.,0.));
#280=DIRECTION('ref_axis',(0.,-1.,1.22460635382238E-16));
#281=DIRECTION('center_axis',(1.,0.,0.));
#282=DIRECTION('ref_axis',(0.,0.,-1.));
#283=DIRECTION('center_axis',(-1.,0.,0.));
#284=DIRECTION('ref_axis',(0.,-1.,1.22460635382238E-16));
#285=DIRECTION('center_axis',(1.,0.,0.));
#286=DIRECTION('ref_axis',(0.,1.,0.));
#287=DIRECTION('',(-1.,0.,0.));
#288=DIRECTION('center_axis',(1.,0.,0.));
#289=DIRECTION('ref_axis',(0.,1.,0.));
#290=DIRECTION('center_axis',(1.,0.,0.));
#291=DIRECTION('ref_axis',(0.,0.,-1.));
#292=DIRECTION('center_axis',(0.,-1.,-1.22464679914735E-16));
#293=DIRECTION('ref_axis',(0.,-1.22464679914735E-16,1.));
#294=DIRECTION('center_axis',(1.,0.,0.));
#295=DIRECTION('ref_axis',(0.,1.,0.));
#296=DIRECTION('center_axis',(1.,0.,0.));
#297=DIRECTION('ref_axis',(0.,1.,0.));
#298=DIRECTION('',(-1.,0.,0.));
#299=DIRECTION('center_axis',(1.,0.,0.));
#300=DIRECTION('ref_axis',(0.,1.,0.));
#301=DIRECTION('center_axis',(-1.,0.,0.));
#302=DIRECTION('ref_axis',(0.,0.,1.));
#303=DIRECTION('center_axis',(1.,0.,0.));
#304=DIRECTION('ref_axis',(0.,1.,0.));
#305=DIRECTION('center_axis',(1.,0.,0.));
#306=DIRECTION('ref_axis',(0.,1.,0.));
#307=DIRECTION('center_axis',(1.,0.,0.));
#308=DIRECTION('ref_axis',(0.,1.,0.));
#309=DIRECTION('',(-1.,0.,0.));
#310=DIRECTION('center_axis',(1.,0.,0.));
#311=DIRECTION('ref_axis',(0.,0.,-1.));
#312=DIRECTION('center_axis',(1.,0.,0.));
#313=DIRECTION('ref_axis',(0.,1.,0.));
#314=DIRECTION('center_axis',(1.,0.,0.));
#315=DIRECTION('ref_axis',(0.,1.,0.));
#316=DIRECTION('',(-1.,0.,0.));
#317=DIRECTION('center_axis',(-1.,0.,0.));
#318=DIRECTION('ref_axis',(0.,0.,1.));
#319=CARTESIAN_POINT('',(0.,0.,0.));
#320=CARTESIAN_POINT('Origin',(0.747,0.,0.));
#321=CARTESIAN_POINT('',(0.687,-2.52277240624355E-16,2.06));
#322=CARTESIAN_POINT('Origin',(0.687,0.,0.));
#323=CARTESIAN_POINT('',(0.747,-2.44929359829471E-16,2.));
#324=CARTESIAN_POINT('Origin',(0.747,-2.52277240624355E-16,2.06));
#325=CARTESIAN_POINT('',(0.747,-2.,-2.44929359829471E-16));
#326=CARTESIAN_POINT('Origin',(0.747,0.,0.));
#327=CARTESIAN_POINT('Origin',(0.747,0.,0.));
#328=CARTESIAN_POINT('Origin',(1.2185,0.,0.));
#329=CARTESIAN_POINT('',(1.745,-2.,-2.44929359829471E-16));
#330=CARTESIAN_POINT('',(1.745,-2.44929359829471E-16,2.));
#331=CARTESIAN_POINT('Origin',(1.745,0.,0.));
#332=CARTESIAN_POINT('',(1.2185,-2.,-2.44929359829471E-16));
#333=CARTESIAN_POINT('Origin',(1.745,0.,0.));
#334=CARTESIAN_POINT('Origin',(0.687,2.064,0.));
#335=CARTESIAN_POINT('',(0.687,-2.128,-2.60604838858557E-16));
#336=CARTESIAN_POINT('Origin',(0.687,0.,0.));
#337=CARTESIAN_POINT('Origin',(1.745,0.,0.));
#338=CARTESIAN_POINT('',(1.745,-2.34764791396548E-16,1.917));
#339=CARTESIAN_POINT('',(1.745,-1.917,-2.34764791396548E-16));
#340=CARTESIAN_POINT('Origin',(1.745,0.,0.));
#341=CARTESIAN_POINT('Origin',(1.745,0.,0.));
#342=CARTESIAN_POINT('',(1.75,-2.35377114796121E-16,1.922));
#343=CARTESIAN_POINT('Origin',(1.745,-2.35377114796121E-16,1.922));
#344=CARTESIAN_POINT('Origin',(1.75,0.,0.));
#345=CARTESIAN_POINT('Origin',(1.75,1.9585,0.));
#346=CARTESIAN_POINT('',(1.75,-2.44317036429897E-16,1.995));
#347=CARTESIAN_POINT('Origin',(1.75,0.,0.));
#348=CARTESIAN_POINT('Origin',(0.875,0.,0.));
#349=CARTESIAN_POINT('',(-3.49676543189026E-16,-1.917,-2.34764791396548E-16));
#350=CARTESIAN_POINT('',(0.875,-1.917,-2.34764791396548E-16));
#351=CARTESIAN_POINT('Origin',(-3.49676543189026E-16,0.,0.));
#352=CARTESIAN_POINT('Origin',(1.745,0.,0.));
#353=CARTESIAN_POINT('Origin',(1.745,-2.44317036429897E-16,1.995));
#354=CARTESIAN_POINT('Origin',(0.156,0.,0.));
#355=CARTESIAN_POINT('',(0.312,-2.0935,-2.56379807401498E-16));
#356=CARTESIAN_POINT('Origin',(0.312,0.,0.));
#357=CARTESIAN_POINT('',(-3.7153132713834E-16,-2.0935,-2.56379807401498E-16));
#358=CARTESIAN_POINT('',(0.156,-2.0935,-2.56379807401498E-16));
#359=CARTESIAN_POINT('Origin',(-3.93386111087654E-16,0.,0.));
#360=CARTESIAN_POINT('Origin',(0.312,2.17375,0.));
#361=CARTESIAN_POINT('',(0.312,-2.254,-2.76035388527813E-16));
#362=CARTESIAN_POINT('Origin',(0.312,0.,0.));
#363=CARTESIAN_POINT('Origin',(0.3745,0.,0.));
#364=CARTESIAN_POINT('',(0.436999999999999,-2.254,-2.76035388527813E-16));
#365=CARTESIAN_POINT('Origin',(0.436999999999999,0.,0.));
#366=CARTESIAN_POINT('',(0.3745,-2.254,-2.76035388527813E-16));
#367=CARTESIAN_POINT('Origin',(0.436999999999999,2.191,0.));
#368=CARTESIAN_POINT('',(0.436999999999999,-2.128,-2.60604838858557E-16));
#369=CARTESIAN_POINT('Origin',(0.436999999999999,0.,0.));
#370=CARTESIAN_POINT('Origin',(0.562,0.,0.));
#371=CARTESIAN_POINT('',(0.562,-2.128,-2.60604838858557E-16));
#372=CARTESIAN_POINT('Origin',(-3.7153132713834E-16,2.00525,0.));
#373=UNCERTAINTY_MEASURE_WITH_UNIT(LENGTH_MEASURE(0.000393700787401575),
#379,'DISTANCE_ACCURACY_VALUE',
'Maximum model space distance between geometric entities at asserted c
onnectivities');
#374=UNCERTAINTY_MEASURE_WITH_UNIT(LENGTH_MEASURE(0.000393700787401575),
#379,'DISTANCE_ACCURACY_VALUE',
'Maximum model space distance between geometric entities at asserted c
onnectivities');
#375=(
GEOMETRIC_REPRESENTATION_CONTEXT(3)
GLOBAL_UNCERTAINTY_ASSIGNED_CONTEXT((#373))
GLOBAL_UNIT_ASSIGNED_CONTEXT((#379,#383,#384))
REPRESENTATION_CONTEXT('','3D')
);
#376=(
GEOMETRIC_REPRESENTATION_CONTEXT(3)
GLOBAL_UNCERTAINTY_ASSIGNED_CONTEXT((#374))
GLOBAL_UNIT_ASSIGNED_CONTEXT((#379,#383,#384))
REPRESENTATION_CONTEXT('','3D')
);
#377=DIMENSIONAL_EXPONENTS(1.,0.,0.,0.,0.,0.,0.);
#378=DIMENSIONAL_EXPONENTS(0.,1.,0.,0.,0.,0.,0.);
#379=(
CONVERSION_BASED_UNIT('inch',#382)
LENGTH_UNIT()
NAMED_UNIT(#377)
);
#380=(
LENGTH_UNIT()
NAMED_UNIT(*)
SI_UNIT(.MILLI.,.METRE.)
);
#381=(
LENGTH_UNIT()
NAMED_UNIT(*)
SI_UNIT(.CENTI.,.METRE.)
);
#382=LENGTH_MEASURE_WITH_UNIT(LENGTH_MEASURE(25.4),#380);
#383=(
NAMED_UNIT(*)
PLANE_ANGLE_UNIT()
SI_UNIT($,.RADIAN.)
);
#384=(
NAMED_UNIT(*)
SI_UNIT($,.STERADIAN.)
SOLID_ANGLE_UNIT()
);
#385=SHAPE_DEFINITION_REPRESENTATION(#386,#387);
#386=PRODUCT_DEFINITION_SHAPE('',$,#389);
#387=SHAPE_REPRESENTATION('',(#215),#375);
#388=PRODUCT_DEFINITION_CONTEXT('part definition',#393,'design');
#389=PRODUCT_DEFINITION('L14AJP-4','L14AJP-4',#390,#388);
#390=PRODUCT_DEFINITION_FORMATION('',$,#395);
#391=PRODUCT_RELATED_PRODUCT_CATEGORY('L14AJP-4','L14AJP-4',(#395));
#392=APPLICATION_PROTOCOL_DEFINITION('international standard',
'automotive_design',2009,#393);
#393=APPLICATION_CONTEXT(
'Core Data for Automotive Mechanical Design Process');
#394=PRODUCT_CONTEXT('part definition',#393,'mechanical');
#395=PRODUCT('L14AJP-4','L14AJP-4',$,(#394));
#396=PRESENTATION_STYLE_ASSIGNMENT((#397));
#397=SURFACE_STYLE_USAGE(.BOTH.,#400);
#398=SURFACE_STYLE_RENDERING_WITH_PROPERTIES($,#404,(#399));
#399=SURFACE_STYLE_TRANSPARENT(0.);
#400=SURFACE_SIDE_STYLE('',(#401,#398));
#401=SURFACE_STYLE_FILL_AREA(#402);
#402=FILL_AREA_STYLE('',(#403));
#403=FILL_AREA_STYLE_COLOUR('',#404);
#404=COLOUR_RGB('',0.752941176470588,0.752941176470588,0.752941176470588);
ENDSEC;
END-ISO-10303-21;
